  0
SECTION
  2
HEADER
  9
$ACADVER
  1
AC1009
  9
$INSBASE
 10
0.0
 20
0.0
 30
0.0
  9
$EXTMIN
 10
-199.124701
 20
-10.634603
 30
0.0
  9
$EXTMAX
 10
126.050749
 20
1.491457
 30
0.0
  9
$LIMMIN
 10
0.0
 20
0.0
  9
$LIMMAX
 10
0.0
 20
0.0
  9
$ORTHOMODE
 70
     0
  9
$REGENMODE
 70
     1
  9
$FILLMODE
 70
     1
  9
$QTEXTMODE
 70
     0
  9
$MIRRTEXT
 70
     1
  9
$DRAGMODE
 70
     2
  9
$LTSCALE
 40
1.0
  9
$OSMODE
 70
     0
  9
$ATTMODE
 70
     1
  9
$TEXTSIZE
 40
0.2
  9
$TRACEWID
 40
0.05
  9
$TEXTSTYLE
  7
STANDARD
  9
$CLAYER
  8
0
  9
$CELTYPE
  6
CONTINUOUS
  9
$CECOLOR
 62
   256
  9
$DIMSCALE
 40
1.0
  9
$DIMASZ
 40
0.18
  9
$DIMEXO
 40
0.0625
  9
$DIMDLI
 40
0.38
  9
$DIMRND
 40
0.0
  9
$DIMDLE
 40
0.0
  9
$DIMEXE
 40
0.18
  9
$DIMTP
 40
0.0
  9
$DIMTM
 40
0.0
  9
$DIMTXT
 40
0.18
  9
$DIMCEN
 40
0.09
  9
$DIMTSZ
 40
0.0
  9
$DIMTOL
 70
     0
  9
$DIMLIM
 70
     0
  9
$DIMTIH
 70
     1
  9
$DIMTOH
 70
     1
  9
$DIMSE1
 70
     0
  9
$DIMSE2
 70
     0
  9
$DIMTAD
 70
     0
  9
$DIMZIN
 70
     0
  9
$DIMBLK
  1

  9
$DIMASO
 70
     1
  9
$DIMSHO
 70
     1
  9
$DIMPOST
  1

  9
$DIMAPOST
  1

  9
$DIMALT
 70
     0
  9
$DIMALTD
 70
     2
  9
$DIMALTF
 40
25.4
  9
$DIMLFAC
 40
1.0
  9
$DIMTOFL
 70
     0
  9
$DIMTVP
 40
0.0
  9
$DIMTIX
 70
     0
  9
$DIMSOXD
 70
     0
  9
$DIMSAH
 70
     0
  9
$DIMBLK1
  1

  9
$DIMBLK2
  1

  9
$DIMSTYLE
  2
STANDARD
  9
$DIMCLRD
 70
     0
  9
$DIMCLRE
 70
     0
  9
$DIMCLRT
 70
     0
  9
$DIMTFAC
 40
1.0
  9
$DIMGAP
 40
0.09
  9
$LUNITS
 70
     2
  9
$LUPREC
 70
     4
  9
$AXISMODE
 70
     0
  9
$AXISUNIT
 10
0.0
 20
0.0
  9
$SKETCHINC
 40
0.1
  9
$FILLETRAD
 40
0.0
  9
$AUNITS
 70
     0
  9
$AUPREC
 70
     0
  9
$MENU
  1
acad
  9
$ELEVATION
 40
0.0
  9
$PELEVATION
 40
0.0
  9
$THICKNESS
 40
0.0
  9
$LIMCHECK
 70
     0
  9
$BLIPMODE
 70
     1
  9
$CHAMFERA
 40
0.0
  9
$CHAMFERB
 40
0.0
  9
$SKPOLY
 70
     0
  9
$TDCREATE
 40
0.000000000
  9
$TDUPDATE
 40
0.000000000
  9
$TDINDWG
 40
0.0000000000
  9
$TDUSRTIMER
 40
0.0000000000
  9
$USRTIMER
 70
     1
  9
$ANGBASE
 50
0.0
  9
$ANGDIR
 70
     0
  9
$PDMODE
 70
     0
  9
$PDSIZE
 40
0.0
  9
$PLINEWID
 40
0.0
  9
$COORDS
 70
     0
  9
$SPLFRAME
 70
     0
  9
$SPLINETYPE
 70
     6
  9
$SPLINESEGS
 70
     8
  9
$ATTDIA
 70
     0
  9
$ATTREQ
 70
     1
  9
$HANDLING
 70
     1
  9
$HANDSEED
  5
1B1
  9
$SURFTAB1
 70
     6
  9
$SURFTAB2
 70
     6
  9
$SURFTYPE
 70
     6
  9
$SURFU
 70
     6
  9
$SURFV
 70
     6
  9
$UCSNAME
  2

  9
$UCSORG
 10
0.0
 20
0.0
 30
0.0
  9
$UCSXDIR
 10
1.0
 20
0.0
 30
0.0
  9
$UCSYDIR
 10
0.0
 20
1.0
 30
0.0
  9
$PUCSNAME
  2

  9
$PUCSORG
 10
0.0
 20
0.0
 30
0.0
  9
$PUCSXDIR
 10
1.0
 20
0.0
 30
0.0
  9
$PUCSYDIR
 10
0.0
 20
1.0
 30
0.0
  9
$USERI1
 70
     0
  9
$USERI2
 70
     0
  9
$USERI3
 70
     0
  9
$USERI4
 70
     0
  9
$USERI5
 70
     0
  9
$USERR1
 40
0.0
  9
$USERR2
 40
0.0
  9
$USERR3
 40
0.0
  9
$USERR4
 40
0.0
  9
$USERR5
 40
0.0
  9
$WORLDVIEW
 70
     1
  9
$SHADEDGE
 70
     3
  9
$SHADEDIF
 70
    70
  9
$TILEMODE
 70
     1
  9
$MAXACTVP
 70
    16
  9
$PINSBASE
 10
0.0
 20
0.0
 30
0.0
  9
$PLIMCHECK
 70
     0
  9
$PEXTMIN
 10
1.000000E+20
 20
1.000000E+20
 30
1.000000E+20
  9
$PEXTMAX
 10
-1.000000E+20
 20
-1.000000E+20
 30
-1.000000E+20
  9
$PLIMMIN
 10
0.0
 20
0.0
  9
$PLIMMAX
 10
12.0
 20
9.0
  9
$UNITMODE
 70
     0
  9
$VISRETAIN
 70
     0
  9
$PLINEGEN
 70
     1
  9
$PSLTSCALE
 70
     0
  9
$TREEDEPTH
 70
  3020
  9
$DWGCODEPAGE
  3
dos850
  0
ENDSEC
  0
SECTION
  2
TABLES
  0
TABLE
  2
VPORT
 70
     1
  0
VPORT
  2
*ACTIVE
 70
     0
 10
0.0
 20
0.0
 11
1.0
 21
1.0
 12
6.591288
 22
4.579184
 13
0.0
 23
0.0
 14
1.0
 24
1.0
 15
0.0
 25
0.0
 16
0.0
 26
0.0
 36
1.0
 17
0.0
 27
0.0
 37
0.0
 40
9.158369
 41
0.688564
 42
50.0
 43
0.0
 44
0.0
 50
0.0
 51
0.0
 71
     0
 72
   100
 73
     1
 74
     1
 75
     0
 76
     0
 77
     0
 78
     0
  0
ENDTAB
  0
TABLE
  2
LTYPE
 70
     2
  0
LTYPE
  2
CONTINUOUS
 70
    64
  3
Solid line
 72
    65
 73
     0
 40
0.0
  0
LTYPE
  2
CENTER2
 70
    64
  3
- -
 72
    65
 73
     4
 40
0.044291
 49
0.029528
 49
-0.004921
 49
0.004921
 49
-0.004921
  0
ENDTAB
  0
TABLE
  2
LAYER
 70
     4
  0
LAYER
  2
0
 70
     0
 62
     7
  6
CONTINUOUS
  0
LAYER
  2
MERGE
 70
     0
 62
     7
  6
CONTINUOUS
  0
LAYER
  2
STANDARD
 70
     0
 62
     7
  6
CONTINUOUS
  0
LAYER
  2
DEFPOINTS
 70
     0
 62
     7
  6
CONTINUOUS
  0
ENDTAB
  0
TABLE
  2
STYLE
 70
     3
  0
STYLE
  2
STANDARD
 70
     0
 40
0.0
 41
1.0
 50
0.0
 71
     0
 42
0.0
  3
txt
  4

  0
STYLE
  2
STYLE1
 70
     0
 40
0.0
 41
1.0
 50
0.0
 71
     0
 42
0.0
  3
Arial.ttf
  4

  0
STYLE
  2
STYLE2
 70
     0
 40
0.0
 41
1.0
 50
0.0
 71
     0
 42
0.0
  3
txt.SHX
  4

  0
ENDTAB
  0
TABLE
  2
VIEW
 70
     0
  0
ENDTAB
  0
TABLE
  2
UCS
 70
     0
  0
ENDTAB
  0
TABLE
  2
APPID
 70
     1
  0
APPID
  2
ACAD
 70
     0
  0
ENDTAB
  0
TABLE
  2
DIMSTYLE
 70
     1
  0
DIMSTYLE
  2
STANDARD
 70
     0
  3

  4

  5

  6

  7

 40
1.0
 41
0.18
 42
0.0625
 43
0.38
 44
0.18
 45
0.0
 46
0.0
 47
0.0
 48
0.0
 71
     0
 72
     0
 73
     1
 74
     1
 75
     0
 76
     0
 77
     0
 78
     0
140
0.18
141
0.09
142
0.0
143
25.4
144
1.0
145
0.0
146
1.0
147
0.09
170
     0
171
     2
172
     0
173
     0
174
     0
175
     0
176
     0
177
     0
178
     0
  0
ENDTAB
  0
ENDSEC
  0
SECTION
  2
BLOCKS
  0
ENDSEC
  0
SECTION
  2
ENTITIES
  0
LINE
  8
0
 62
     3
  5
22
 10
-197.514923
 20
-10.574573
 30
0.0
 11
104.225853
 21
-10.574573
 31
0.0
  0
LINE
  8
0
 62
     3
  5
23
 10
-190.036713
 20
1.431427
 30
0.0
 11
-190.856064
 21
-0.819698
 31
0.0
  0
LINE
  8
0
 62
     3
  5
24
 10
-190.856064
 20
-0.819698
 30
0.0
 11
-191.607513
 21
-0.819698
 31
0.0
  0
LINE
  8
0
 62
     3
  5
25
 10
-191.607513
 20
-0.819698
 30
0.0
 11
-192.426849
 21
1.431427
 31
0.0
  0
LINE
  8
0
 62
     3
  5
26
 10
-192.426849
 20
1.431427
 30
0.0
 11
-193.178284
 21
1.431427
 31
0.0
  0
LINE
  8
0
 62
     3
  5
27
 10
-193.178284
 20
1.431427
 30
0.0
 11
-193.997635
 21
-0.819698
 31
0.0
  0
LINE
  8
0
 62
     3
  5
28
 10
-193.997635
 20
-0.819698
 30
0.0
 11
-194.749069
 21
-0.819698
 31
0.0
  0
LINE
  8
0
 62
     3
  5
29
 10
-194.749069
 20
-0.819698
 30
0.0
 11
-195.56842
 21
1.431427
 31
0.0
  0
LINE
  8
0
 62
     3
  5
2A
 10
-195.56842
 20
1.431427
 30
0.0
 11
-196.319855
 21
1.431427
 31
0.0
  0
LINE
  8
0
 62
     3
  5
2B
 10
-196.319855
 20
1.431427
 30
0.0
 11
-197.139206
 21
-0.819698
 31
0.0
  0
LINE
  8
0
 62
     3
  5
2C
 10
-197.139206
 20
-0.819698
 30
0.0
 11
-197.514923
 21
-0.819698
 31
0.0
  0
LINE
  8
0
 62
     3
  5
2D
 10
-197.514923
 20
-0.819698
 30
0.0
 11
-197.514923
 21
-10.574573
 31
0.0
  0
LINE
  8
0
 62
     3
  5
2E
 10
112.434975
 20
-10.574573
 30
0.0
 11
122.439972
 21
-10.574573
 31
0.0
  0
LINE
  8
0
 62
     3
  5
2F
 10
122.439972
 20
-10.574573
 30
0.0
 11
122.439972
 21
1.431427
 31
0.0
  0
LINE
  8
0
 62
     3
  5
30
 10
122.439972
 20
1.431427
 30
0.0
 11
112.434975
 21
1.431427
 31
0.0
  0
LINE
  8
0
 62
     3
  5
31
 10
112.434975
 20
1.431427
 30
0.0
 11
112.434975
 21
-10.574573
 31
0.0
  0
LINE
  8
0
 62
     3
  5
32
 10
112.434975
 20
-0.819698
 30
0.0
 11
122.439972
 21
-0.819698
 31
0.0
  0
LINE
  8
0
  6
CENTER2
 62
     3
  5
34
 10
110.433975
 20
0.430927
 30
0.0
 11
124.440971
 21
0.430927
 31
0.0
  0
TEXT
  8
0
 62
     3
  5
35
 10
-196.51442
 20
-9.574073
 30
0.0
 40
1.000496
  1
1 DP x 300"
 50
0.000012
  7
STYLE2
  0
TEXT
  8
0
 62
     3
  5
36
 10
112.619995
 20
-9.574073
 30
0.0
 40
1.000499
  1
1 DP X 300"
 50
0.000012
  7
STYLE2
  0
LINE
  8
0
 62
     3
  5
37
 10
-183.753571
 20
1.431427
 30
0.0
 11
-184.572922
 21
-0.819698
 31
0.0
  0
LINE
  8
0
 62
     3
  5
38
 10
-184.572922
 20
-0.819698
 30
0.0
 11
-185.324371
 21
-0.819698
 31
0.0
  0
LINE
  8
0
 62
     3
  5
39
 10
-185.324371
 20
-0.819698
 30
0.0
 11
-186.143707
 21
1.431427
 31
0.0
  0
LINE
  8
0
 62
     3
  5
3A
 10
-186.143707
 20
1.431427
 30
0.0
 11
-186.895142
 21
1.431427
 31
0.0
  0
LINE
  8
0
 62
     3
  5
3B
 10
-186.895142
 20
1.431427
 30
0.0
 11
-187.714493
 21
-0.819698
 31
0.0
  0
LINE
  8
0
 62
     3
  5
3C
 10
-187.714493
 20
-0.819698
 30
0.0
 11
-188.465942
 21
-0.819698
 31
0.0
  0
LINE
  8
0
 62
     3
  5
3D
 10
-188.465942
 20
-0.819698
 30
0.0
 11
-189.285278
 21
1.431427
 31
0.0
  0
LINE
  8
0
 62
     3
  5
3E
 10
-189.285278
 20
1.431427
 30
0.0
 11
-190.036713
 21
1.431427
 31
0.0
  0
LINE
  8
0
 62
     3
  5
3F
 10
-177.470444
 20
1.431427
 30
0.0
 11
-178.28978
 21
-0.819698
 31
0.0
  0
LINE
  8
0
 62
     3
  5
40
 10
-178.28978
 20
-0.819698
 30
0.0
 11
-179.041229
 21
-0.819698
 31
0.0
  0
LINE
  8
0
 62
     3
  5
41
 10
-179.041229
 20
-0.819698
 30
0.0
 11
-179.860565
 21
1.431427
 31
0.0
  0
LINE
  8
0
 62
     3
  5
42
 10
-179.860565
 20
1.431427
 30
0.0
 11
-180.612
 21
1.431427
 31
0.0
  0
LINE
  8
0
 62
     3
  5
43
 10
-180.612
 20
1.431427
 30
0.0
 11
-181.431351
 21
-0.819698
 31
0.0
  0
LINE
  8
0
 62
     3
  5
44
 10
-181.431351
 20
-0.819698
 30
0.0
 11
-182.1828
 21
-0.819698
 31
0.0
  0
LINE
  8
0
 62
     3
  5
45
 10
-182.1828
 20
-0.819698
 30
0.0
 11
-183.002136
 21
1.431427
 31
0.0
  0
LINE
  8
0
 62
     3
  5
46
 10
-183.002136
 20
1.431427
 30
0.0
 11
-183.753571
 21
1.431427
 31
0.0
  0
LINE
  8
0
 62
     3
  5
47
 10
-171.187302
 20
1.431427
 30
0.0
 11
-172.006653
 21
-0.819698
 31
0.0
  0
LINE
  8
0
 62
     3
  5
48
 10
-172.006653
 20
-0.819698
 30
0.0
 11
-172.758087
 21
-0.819698
 31
0.0
  0
LINE
  8
0
 62
     3
  5
49
 10
-172.758087
 20
-0.819698
 30
0.0
 11
-173.577423
 21
1.431427
 31
0.0
  0
LINE
  8
0
 62
     3
  5
4A
 10
-173.577423
 20
1.431427
 30
0.0
 11
-174.328873
 21
1.431427
 31
0.0
  0
LINE
  8
0
 62
     3
  5
4B
 10
-174.328873
 20
1.431427
 30
0.0
 11
-175.148224
 21
-0.819698
 31
0.0
  0
LINE
  8
0
 62
     3
  5
4C
 10
-175.148224
 20
-0.819698
 30
0.0
 11
-175.899658
 21
-0.819698
 31
0.0
  0
LINE
  8
0
 62
     3
  5
4D
 10
-175.899658
 20
-0.819698
 30
0.0
 11
-176.718994
 21
1.431427
 31
0.0
  0
LINE
  8
0
 62
     3
  5
4E
 10
-176.718994
 20
1.431427
 30
0.0
 11
-177.470444
 21
1.431427
 31
0.0
  0
LINE
  8
0
 62
     3
  5
4F
 10
-164.90416
 20
1.431427
 30
0.0
 11
-165.723511
 21
-0.819698
 31
0.0
  0
LINE
  8
0
 62
     3
  5
50
 10
-165.723511
 20
-0.819698
 30
0.0
 11
-166.47496
 21
-0.819698
 31
0.0
  0
LINE
  8
0
 62
     3
  5
51
 10
-166.47496
 20
-0.819698
 30
0.0
 11
-167.294281
 21
1.431427
 31
0.0
  0
LINE
  8
0
 62
     3
  5
52
 10
-167.294281
 20
1.431427
 30
0.0
 11
-168.045731
 21
1.431427
 31
0.0
  0
LINE
  8
0
 62
     3
  5
53
 10
-168.045731
 20
1.431427
 30
0.0
 11
-168.865082
 21
-0.819698
 31
0.0
  0
LINE
  8
0
 62
     3
  5
54
 10
-168.865082
 20
-0.819698
 30
0.0
 11
-169.616516
 21
-0.819698
 31
0.0
  0
LINE
  8
0
 62
     3
  5
55
 10
-169.616516
 20
-0.819698
 30
0.0
 11
-170.435852
 21
1.431427
 31
0.0
  0
LINE
  8
0
 62
     3
  5
56
 10
-170.435852
 20
1.431427
 30
0.0
 11
-171.187302
 21
1.431427
 31
0.0
  0
LINE
  8
0
 62
     3
  5
57
 10
-158.621017
 20
1.431427
 30
0.0
 11
-159.440353
 21
-0.819698
 31
0.0
  0
LINE
  8
0
 62
     3
  5
58
 10
-159.440353
 20
-0.819698
 30
0.0
 11
-160.191818
 21
-0.819698
 31
0.0
  0
LINE
  8
0
 62
     3
  5
59
 10
-160.191818
 20
-0.819698
 30
0.0
 11
-161.011154
 21
1.431427
 31
0.0
  0
LINE
  8
0
 62
     3
  5
5A
 10
-161.011154
 20
1.431427
 30
0.0
 11
-161.762589
 21
1.431427
 31
0.0
  0
LINE
  8
0
 62
     3
  5
5B
 10
-161.762589
 20
1.431427
 30
0.0
 11
-162.58194
 21
-0.819698
 31
0.0
  0
LINE
  8
0
 62
     3
  5
5C
 10
-162.58194
 20
-0.819698
 30
0.0
 11
-163.333389
 21
-0.819698
 31
0.0
  0
LINE
  8
0
 62
     3
  5
5D
 10
-163.333389
 20
-0.819698
 30
0.0
 11
-164.15271
 21
1.431427
 31
0.0
  0
LINE
  8
0
 62
     3
  5
5E
 10
-164.15271
 20
1.431427
 30
0.0
 11
-164.90416
 21
1.431427
 31
0.0
  0
LINE
  8
0
 62
     3
  5
5F
 10
-152.337891
 20
1.431427
 30
0.0
 11
-153.157227
 21
-0.819698
 31
0.0
  0
LINE
  8
0
 62
     3
  5
60
 10
-153.157227
 20
-0.819698
 30
0.0
 11
-153.908661
 21
-0.819698
 31
0.0
  0
LINE
  8
0
 62
     3
  5
61
 10
-153.908661
 20
-0.819698
 30
0.0
 11
-154.728012
 21
1.431427
 31
0.0
  0
LINE
  8
0
 62
     3
  5
62
 10
-154.728012
 20
1.431427
 30
0.0
 11
-155.479446
 21
1.431427
 31
0.0
  0
LINE
  8
0
 62
     3
  5
63
 10
-155.479446
 20
1.431427
 30
0.0
 11
-156.298798
 21
-0.819698
 31
0.0
  0
LINE
  8
0
 62
     3
  5
64
 10
-156.298798
 20
-0.819698
 30
0.0
 11
-157.050232
 21
-0.819698
 31
0.0
  0
LINE
  8
0
 62
     3
  5
65
 10
-157.050232
 20
-0.819698
 30
0.0
 11
-157.869583
 21
1.431427
 31
0.0
  0
LINE
  8
0
 62
     3
  5
66
 10
-157.869583
 20
1.431427
 30
0.0
 11
-158.621017
 21
1.431427
 31
0.0
  0
LINE
  8
0
 62
     3
  5
67
 10
-146.054749
 20
1.431427
 30
0.0
 11
-146.874084
 21
-0.819698
 31
0.0
  0
LINE
  8
0
 62
     3
  5
68
 10
-146.874084
 20
-0.819698
 30
0.0
 11
-147.625519
 21
-0.819698
 31
0.0
  0
LINE
  8
0
 62
     3
  5
69
 10
-147.625519
 20
-0.819698
 30
0.0
 11
-148.44487
 21
1.431427
 31
0.0
  0
LINE
  8
0
 62
     3
  5
6A
 10
-148.44487
 20
1.431427
 30
0.0
 11
-149.19632
 21
1.431427
 31
0.0
  0
LINE
  8
0
 62
     3
  5
6B
 10
-149.19632
 20
1.431427
 30
0.0
 11
-150.01564
 21
-0.819698
 31
0.0
  0
LINE
  8
0
 62
     3
  5
6C
 10
-150.01564
 20
-0.819698
 30
0.0
 11
-150.76709
 21
-0.819698
 31
0.0
  0
LINE
  8
0
 62
     3
  5
6D
 10
-150.76709
 20
-0.819698
 30
0.0
 11
-151.586441
 21
1.431427
 31
0.0
  0
LINE
  8
0
 62
     3
  5
6E
 10
-151.586441
 20
1.431427
 30
0.0
 11
-152.337891
 21
1.431427
 31
0.0
  0
LINE
  8
0
 62
     3
  5
6F
 10
-139.771591
 20
1.431427
 30
0.0
 11
-140.590942
 21
-0.819698
 31
0.0
  0
LINE
  8
0
 62
     3
  5
70
 10
-140.590942
 20
-0.819698
 30
0.0
 11
-141.342377
 21
-0.819698
 31
0.0
  0
LINE
  8
0
 62
     3
  5
71
 10
-141.342377
 20
-0.819698
 30
0.0
 11
-142.161713
 21
1.431427
 31
0.0
  0
LINE
  8
0
 62
     3
  5
72
 10
-142.161713
 20
1.431427
 30
0.0
 11
-142.913162
 21
1.431427
 31
0.0
  0
LINE
  8
0
 62
     3
  5
73
 10
-142.913162
 20
1.431427
 30
0.0
 11
-143.732513
 21
-0.819698
 31
0.0
  0
LINE
  8
0
 62
     3
  5
74
 10
-143.732513
 20
-0.819698
 30
0.0
 11
-144.483948
 21
-0.819698
 31
0.0
  0
LINE
  8
0
 62
     3
  5
75
 10
-144.483948
 20
-0.819698
 30
0.0
 11
-145.303299
 21
1.431427
 31
0.0
  0
LINE
  8
0
 62
     3
  5
76
 10
-145.303299
 20
1.431427
 30
0.0
 11
-146.054749
 21
1.431427
 31
0.0
  0
LINE
  8
0
 62
     3
  5
77
 10
-133.488449
 20
1.431427
 30
0.0
 11
-134.3078
 21
-0.819698
 31
0.0
  0
LINE
  8
0
 62
     3
  5
78
 10
-134.3078
 20
-0.819698
 30
0.0
 11
-135.059235
 21
-0.819698
 31
0.0
  0
LINE
  8
0
 62
     3
  5
79
 10
-135.059235
 20
-0.819698
 30
0.0
 11
-135.878586
 21
1.431427
 31
0.0
  0
LINE
  8
0
 62
     3
  5
7A
 10
-135.878586
 20
1.431427
 30
0.0
 11
-136.63002
 21
1.431427
 31
0.0
  0
LINE
  8
0
 62
     3
  5
7B
 10
-136.63002
 20
1.431427
 30
0.0
 11
-137.449371
 21
-0.819698
 31
0.0
  0
LINE
  8
0
 62
     3
  5
7C
 10
-137.449371
 20
-0.819698
 30
0.0
 11
-138.200821
 21
-0.819698
 31
0.0
  0
LINE
  8
0
 62
     3
  5
7D
 10
-138.200821
 20
-0.819698
 30
0.0
 11
-139.020157
 21
1.431427
 31
0.0
  0
LINE
  8
0
 62
     3
  5
7E
 10
-139.020157
 20
1.431427
 30
0.0
 11
-139.771591
 21
1.431427
 31
0.0
  0
LINE
  8
0
 62
     3
  5
7F
 10
-127.205315
 20
1.431427
 30
0.0
 11
-128.024658
 21
-0.819698
 31
0.0
  0
LINE
  8
0
 62
     3
  5
80
 10
-128.024658
 20
-0.819698
 30
0.0
 11
-128.776108
 21
-0.819698
 31
0.0
  0
LINE
  8
0
 62
     3
  5
81
 10
-128.776108
 20
-0.819698
 30
0.0
 11
-129.595444
 21
1.431427
 31
0.0
  0
LINE
  8
0
 62
     3
  5
82
 10
-129.595444
 20
1.431427
 30
0.0
 11
-130.346878
 21
1.431427
 31
0.0
  0
LINE
  8
0
 62
     3
  5
83
 10
-130.346878
 20
1.431427
 30
0.0
 11
-131.166229
 21
-0.819698
 31
0.0
  0
LINE
  8
0
 62
     3
  5
84
 10
-131.166229
 20
-0.819698
 30
0.0
 11
-131.917679
 21
-0.819698
 31
0.0
  0
LINE
  8
0
 62
     3
  5
85
 10
-131.917679
 20
-0.819698
 30
0.0
 11
-132.737015
 21
1.431427
 31
0.0
  0
LINE
  8
0
 62
     3
  5
86
 10
-132.737015
 20
1.431427
 30
0.0
 11
-133.488449
 21
1.431427
 31
0.0
  0
LINE
  8
0
 62
     3
  5
87
 10
-120.922173
 20
1.431427
 30
0.0
 11
-121.741516
 21
-0.819698
 31
0.0
  0
LINE
  8
0
 62
     3
  5
88
 10
-121.741516
 20
-0.819698
 30
0.0
 11
-122.492958
 21
-0.819698
 31
0.0
  0
LINE
  8
0
 62
     3
  5
89
 10
-122.492958
 20
-0.819698
 30
0.0
 11
-123.312302
 21
1.431427
 31
0.0
  0
LINE
  8
0
 62
     3
  5
8A
 10
-123.312302
 20
1.431427
 30
0.0
 11
-124.063744
 21
1.431427
 31
0.0
  0
LINE
  8
0
 62
     3
  5
8B
 10
-124.063744
 20
1.431427
 30
0.0
 11
-124.883087
 21
-0.819698
 31
0.0
  0
LINE
  8
0
 62
     3
  5
8C
 10
-124.883087
 20
-0.819698
 30
0.0
 11
-125.634529
 21
-0.819698
 31
0.0
  0
LINE
  8
0
 62
     3
  5
8D
 10
-125.634529
 20
-0.819698
 30
0.0
 11
-126.45388
 21
1.431427
 31
0.0
  0
LINE
  8
0
 62
     3
  5
8E
 10
-126.45388
 20
1.431427
 30
0.0
 11
-127.205315
 21
1.431427
 31
0.0
  0
LINE
  8
0
 62
     3
  5
8F
 10
-114.639038
 20
1.431427
 30
0.0
 11
-115.458382
 21
-0.819698
 31
0.0
  0
LINE
  8
0
 62
     3
  5
90
 10
-115.458382
 20
-0.819698
 30
0.0
 11
-116.209824
 21
-0.819698
 31
0.0
  0
LINE
  8
0
 62
     3
  5
91
 10
-116.209824
 20
-0.819698
 30
0.0
 11
-117.02916
 21
1.431427
 31
0.0
  0
LINE
  8
0
 62
     3
  5
92
 10
-117.02916
 20
1.431427
 30
0.0
 11
-117.780609
 21
1.431427
 31
0.0
  0
LINE
  8
0
 62
     3
  5
93
 10
-117.780609
 20
1.431427
 30
0.0
 11
-118.599945
 21
-0.819698
 31
0.0
  0
LINE
  8
0
 62
     3
  5
94
 10
-118.599945
 20
-0.819698
 30
0.0
 11
-119.351402
 21
-0.819698
 31
0.0
  0
LINE
  8
0
 62
     3
  5
95
 10
-119.351402
 20
-0.819698
 30
0.0
 11
-120.170731
 21
1.431427
 31
0.0
  0
LINE
  8
0
 62
     3
  5
96
 10
-120.170731
 20
1.431427
 30
0.0
 11
-120.922173
 21
1.431427
 31
0.0
  0
LINE
  8
0
 62
     3
  5
97
 10
-108.355896
 20
1.431427
 30
0.0
 11
-109.175247
 21
-0.819698
 31
0.0
  0
LINE
  8
0
 62
     3
  5
98
 10
-109.175247
 20
-0.819698
 30
0.0
 11
-109.926689
 21
-0.819698
 31
0.0
  0
LINE
  8
0
 62
     3
  5
99
 10
-109.926689
 20
-0.819698
 30
0.0
 11
-110.746025
 21
1.431427
 31
0.0
  0
LINE
  8
0
 62
     3
  5
9A
 10
-110.746025
 20
1.431427
 30
0.0
 11
-111.497467
 21
1.431427
 31
0.0
  0
LINE
  8
0
 62
     3
  5
9B
 10
-111.497467
 20
1.431427
 30
0.0
 11
-112.316811
 21
-0.819698
 31
0.0
  0
LINE
  8
0
 62
     3
  5
9C
 10
-112.316811
 20
-0.819698
 30
0.0
 11
-113.068253
 21
-0.819698
 31
0.0
  0
LINE
  8
0
 62
     3
  5
9D
 10
-113.068253
 20
-0.819698
 30
0.0
 11
-113.887596
 21
1.431427
 31
0.0
  0
LINE
  8
0
 62
     3
  5
9E
 10
-113.887596
 20
1.431427
 30
0.0
 11
-114.639038
 21
1.431427
 31
0.0
  0
LINE
  8
0
 62
     3
  5
9F
 10
-102.072762
 20
1.431427
 30
0.0
 11
-102.892097
 21
-0.819698
 31
0.0
  0
LINE
  8
0
 62
     3
  5
A0
 10
-102.892097
 20
-0.819698
 30
0.0
 11
-103.643547
 21
-0.819698
 31
0.0
  0
LINE
  8
0
 62
     3
  5
A1
 10
-103.643547
 20
-0.819698
 30
0.0
 11
-104.462883
 21
1.431427
 31
0.0
  0
LINE
  8
0
 62
     3
  5
A2
 10
-104.462883
 20
1.431427
 30
0.0
 11
-105.214333
 21
1.431427
 31
0.0
  0
LINE
  8
0
 62
     3
  5
A3
 10
-105.214333
 20
1.431427
 30
0.0
 11
-106.033669
 21
-0.819698
 31
0.0
  0
LINE
  8
0
 62
     3
  5
A4
 10
-106.033669
 20
-0.819698
 30
0.0
 11
-106.78511
 21
-0.819698
 31
0.0
  0
LINE
  8
0
 62
     3
  5
A5
 10
-106.78511
 20
-0.819698
 30
0.0
 11
-107.604454
 21
1.431427
 31
0.0
  0
LINE
  8
0
 62
     3
  5
A6
 10
-107.604454
 20
1.431427
 30
0.0
 11
-108.355896
 21
1.431427
 31
0.0
  0
LINE
  8
0
 62
     3
  5
A7
 10
-95.789612
 20
1.431427
 30
0.0
 11
-96.608963
 21
-0.819698
 31
0.0
  0
LINE
  8
0
 62
     3
  5
A8
 10
-96.608963
 20
-0.819698
 30
0.0
 11
-97.360405
 21
-0.819698
 31
0.0
  0
LINE
  8
0
 62
     3
  5
A9
 10
-97.360405
 20
-0.819698
 30
0.0
 11
-98.179749
 21
1.431427
 31
0.0
  0
LINE
  8
0
 62
     3
  5
AA
 10
-98.179749
 20
1.431427
 30
0.0
 11
-98.93119
 21
1.431427
 31
0.0
  0
LINE
  8
0
 62
     3
  5
AB
 10
-98.93119
 20
1.431427
 30
0.0
 11
-99.750542
 21
-0.819698
 31
0.0
  0
LINE
  8
0
 62
     3
  5
AC
 10
-99.750542
 20
-0.819698
 30
0.0
 11
-100.501984
 21
-0.819698
 31
0.0
  0
LINE
  8
0
 62
     3
  5
AD
 10
-100.501984
 20
-0.819698
 30
0.0
 11
-101.32132
 21
1.431427
 31
0.0
  0
LINE
  8
0
 62
     3
  5
AE
 10
-101.32132
 20
1.431427
 30
0.0
 11
-102.072762
 21
1.431427
 31
0.0
  0
LINE
  8
0
 62
     3
  5
AF
 10
-89.506485
 20
1.431427
 30
0.0
 11
-90.325821
 21
-0.819698
 31
0.0
  0
LINE
  8
0
 62
     3
  5
B0
 10
-90.325821
 20
-0.819698
 30
0.0
 11
-91.077271
 21
-0.819698
 31
0.0
  0
LINE
  8
0
 62
     3
  5
B1
 10
-91.077271
 20
-0.819698
 30
0.0
 11
-91.896606
 21
1.431427
 31
0.0
  0
LINE
  8
0
 62
     3
  5
B2
 10
-91.896606
 20
1.431427
 30
0.0
 11
-92.648048
 21
1.431427
 31
0.0
  0
LINE
  8
0
 62
     3
  5
B3
 10
-92.648048
 20
1.431427
 30
0.0
 11
-93.467392
 21
-0.819698
 31
0.0
  0
LINE
  8
0
 62
     3
  5
B4
 10
-93.467392
 20
-0.819698
 30
0.0
 11
-94.218834
 21
-0.819698
 31
0.0
  0
LINE
  8
0
 62
     3
  5
B5
 10
-94.218834
 20
-0.819698
 30
0.0
 11
-95.038185
 21
1.431427
 31
0.0
  0
LINE
  8
0
 62
     3
  5
B6
 10
-95.038185
 20
1.431427
 30
0.0
 11
-95.789612
 21
1.431427
 31
0.0
  0
LINE
  8
0
 62
     3
  5
B7
 10
-83.223351
 20
1.431427
 30
0.0
 11
-84.042686
 21
-0.819698
 31
0.0
  0
LINE
  8
0
 62
     3
  5
B8
 10
-84.042686
 20
-0.819698
 30
0.0
 11
-84.794128
 21
-0.819698
 31
0.0
  0
LINE
  8
0
 62
     3
  5
B9
 10
-84.794128
 20
-0.819698
 30
0.0
 11
-85.613472
 21
1.431427
 31
0.0
  0
LINE
  8
0
 62
     3
  5
BA
 10
-85.613472
 20
1.431427
 30
0.0
 11
-86.364914
 21
1.431427
 31
0.0
  0
LINE
  8
0
 62
     3
  5
BB
 10
-86.364914
 20
1.431427
 30
0.0
 11
-87.184258
 21
-0.819698
 31
0.0
  0
LINE
  8
0
 62
     3
  5
BC
 10
-87.184258
 20
-0.819698
 30
0.0
 11
-87.935699
 21
-0.819698
 31
0.0
  0
LINE
  8
0
 62
     3
  5
BD
 10
-87.935699
 20
-0.819698
 30
0.0
 11
-88.755035
 21
1.431427
 31
0.0
  0
LINE
  8
0
 62
     3
  5
BE
 10
-88.755035
 20
1.431427
 30
0.0
 11
-89.506485
 21
1.431427
 31
0.0
  0
LINE
  8
0
 62
     3
  5
BF
 10
-76.940208
 20
1.431427
 30
0.0
 11
-77.759552
 21
-0.819698
 31
0.0
  0
LINE
  8
0
 62
     3
  5
C0
 10
-77.759552
 20
-0.819698
 30
0.0
 11
-78.511002
 21
-0.819698
 31
0.0
  0
LINE
  8
0
 62
     3
  5
C1
 10
-78.511002
 20
-0.819698
 30
0.0
 11
-79.330338
 21
1.431427
 31
0.0
  0
LINE
  8
0
 62
     3
  5
C2
 10
-79.330338
 20
1.431427
 30
0.0
 11
-80.081779
 21
1.431427
 31
0.0
  0
LINE
  8
0
 62
     3
  5
C3
 10
-80.081779
 20
1.431427
 30
0.0
 11
-80.901123
 21
-0.819698
 31
0.0
  0
LINE
  8
0
 62
     3
  5
C4
 10
-80.901123
 20
-0.819698
 30
0.0
 11
-81.652565
 21
-0.819698
 31
0.0
  0
LINE
  8
0
 62
     3
  5
C5
 10
-81.652565
 20
-0.819698
 30
0.0
 11
-82.471909
 21
1.431427
 31
0.0
  0
LINE
  8
0
 62
     3
  5
C6
 10
-82.471909
 20
1.431427
 30
0.0
 11
-83.223351
 21
1.431427
 31
0.0
  0
LINE
  8
0
 62
     3
  5
C7
 10
-70.657066
 20
1.431427
 30
0.0
 11
-71.47641
 21
-0.819698
 31
0.0
  0
LINE
  8
0
 62
     3
  5
C8
 10
-71.47641
 20
-0.819698
 30
0.0
 11
-72.227852
 21
-0.819698
 31
0.0
  0
LINE
  8
0
 62
     3
  5
C9
 10
-72.227852
 20
-0.819698
 30
0.0
 11
-73.047195
 21
1.431427
 31
0.0
  0
LINE
  8
0
 62
     3
  5
CA
 10
-73.047195
 20
1.431427
 30
0.0
 11
-73.798637
 21
1.431427
 31
0.0
  0
LINE
  8
0
 62
     3
  5
CB
 10
-73.798637
 20
1.431427
 30
0.0
 11
-74.617981
 21
-0.819698
 31
0.0
  0
LINE
  8
0
 62
     3
  5
CC
 10
-74.617981
 20
-0.819698
 30
0.0
 11
-75.369423
 21
-0.819698
 31
0.0
  0
LINE
  8
0
 62
     3
  5
CD
 10
-75.369423
 20
-0.819698
 30
0.0
 11
-76.188759
 21
1.431427
 31
0.0
  0
LINE
  8
0
 62
     3
  5
CE
 10
-76.188759
 20
1.431427
 30
0.0
 11
-76.940208
 21
1.431427
 31
0.0
  0
LINE
  8
0
 62
     3
  5
CF
 10
-64.37394
 20
1.431427
 30
0.0
 11
-65.193283
 21
-0.819698
 31
0.0
  0
LINE
  8
0
 62
     3
  5
D0
 10
-65.193283
 20
-0.819698
 30
0.0
 11
-65.944702
 21
-0.819698
 31
0.0
  0
LINE
  8
0
 62
     3
  5
D1
 10
-65.944702
 20
-0.819698
 30
0.0
 11
-66.764053
 21
1.431427
 31
0.0
  0
LINE
  8
0
 62
     3
  5
D2
 10
-66.764053
 20
1.431427
 30
0.0
 11
-67.515495
 21
1.431427
 31
0.0
  0
LINE
  8
0
 62
     3
  5
D3
 10
-67.515495
 20
1.431427
 30
0.0
 11
-68.334854
 21
-0.819698
 31
0.0
  0
LINE
  8
0
 62
     3
  5
D4
 10
-68.334854
 20
-0.819698
 30
0.0
 11
-69.086273
 21
-0.819698
 31
0.0
  0
LINE
  8
0
 62
     3
  5
D5
 10
-69.086273
 20
-0.819698
 30
0.0
 11
-69.905624
 21
1.431427
 31
0.0
  0
LINE
  8
0
 62
     3
  5
D6
 10
-69.905624
 20
1.431427
 30
0.0
 11
-70.657066
 21
1.431427
 31
0.0
  0
LINE
  8
0
 62
     3
  5
D7
 10
-58.090786
 20
1.431427
 30
0.0
 11
-58.910137
 21
-0.819698
 31
0.0
  0
LINE
  8
0
 62
     3
  5
D8
 10
-58.910137
 20
-0.819698
 30
0.0
 11
-59.661583
 21
-0.819698
 31
0.0
  0
LINE
  8
0
 62
     3
  5
D9
 10
-59.661583
 20
-0.819698
 30
0.0
 11
-60.480934
 21
1.431427
 31
0.0
  0
LINE
  8
0
 62
     3
  5
DA
 10
-60.480934
 20
1.431427
 30
0.0
 11
-61.232368
 21
1.431427
 31
0.0
  0
LINE
  8
0
 62
     3
  5
DB
 10
-61.232368
 20
1.431427
 30
0.0
 11
-62.051708
 21
-0.819698
 31
0.0
  0
LINE
  8
0
 62
     3
  5
DC
 10
-62.051708
 20
-0.819698
 30
0.0
 11
-62.80315
 21
-0.819698
 31
0.0
  0
LINE
  8
0
 62
     3
  5
DD
 10
-62.80315
 20
-0.819698
 30
0.0
 11
-63.622501
 21
1.431427
 31
0.0
  0
LINE
  8
0
 62
     3
  5
DE
 10
-63.622501
 20
1.431427
 30
0.0
 11
-64.37394
 21
1.431427
 31
0.0
  0
LINE
  8
0
 62
     3
  5
DF
 10
-51.807652
 20
1.431427
 30
0.0
 11
-52.627003
 21
-0.819698
 31
0.0
  0
LINE
  8
0
 62
     3
  5
E0
 10
-52.627003
 20
-0.819698
 30
0.0
 11
-53.378448
 21
-0.819698
 31
0.0
  0
LINE
  8
0
 62
     3
  5
E1
 10
-53.378448
 20
-0.819698
 30
0.0
 11
-54.1978
 21
1.431427
 31
0.0
  0
LINE
  8
0
 62
     3
  5
E2
 10
-54.1978
 20
1.431427
 30
0.0
 11
-54.949223
 21
1.431427
 31
0.0
  0
LINE
  8
0
 62
     3
  5
E3
 10
-54.949223
 20
1.431427
 30
0.0
 11
-55.768574
 21
-0.819698
 31
0.0
  0
LINE
  8
0
 62
     3
  5
E4
 10
-55.768574
 20
-0.819698
 30
0.0
 11
-56.520016
 21
-0.819698
 31
0.0
  0
LINE
  8
0
 62
     3
  5
E5
 10
-56.520016
 20
-0.819698
 30
0.0
 11
-57.339371
 21
1.431427
 31
0.0
  0
LINE
  8
0
 62
     3
  5
E6
 10
-57.339371
 20
1.431427
 30
0.0
 11
-58.090786
 21
1.431427
 31
0.0
  0
LINE
  8
0
 62
     3
  5
E7
 10
-45.524521
 20
1.431427
 30
0.0
 11
-46.343857
 21
-0.819698
 31
0.0
  0
LINE
  8
0
 62
     3
  5
E8
 10
-46.343857
 20
-0.819698
 30
0.0
 11
-47.095303
 21
-0.819698
 31
0.0
  0
LINE
  8
0
 62
     3
  5
E9
 10
-47.095303
 20
-0.819698
 30
0.0
 11
-47.914654
 21
1.431427
 31
0.0
  0
LINE
  8
0
 62
     3
  5
EA
 10
-47.914654
 20
1.431427
 30
0.0
 11
-48.666084
 21
1.431427
 31
0.0
  0
LINE
  8
0
 62
     3
  5
EB
 10
-48.666084
 20
1.431427
 30
0.0
 11
-49.485439
 21
-0.819698
 31
0.0
  0
LINE
  8
0
 62
     3
  5
EC
 10
-49.485439
 20
-0.819698
 30
0.0
 11
-50.236881
 21
-0.819698
 31
0.0
  0
LINE
  8
0
 62
     3
  5
ED
 10
-50.236881
 20
-0.819698
 30
0.0
 11
-51.056225
 21
1.431427
 31
0.0
  0
LINE
  8
0
 62
     3
  5
EE
 10
-51.056225
 20
1.431427
 30
0.0
 11
-51.807652
 21
1.431427
 31
0.0
  0
LINE
  8
0
 62
     3
  5
EF
 10
-39.241375
 20
1.431427
 30
0.0
 11
-40.060722
 21
-0.819698
 31
0.0
  0
LINE
  8
0
 62
     3
  5
F0
 10
-40.060722
 20
-0.819698
 30
0.0
 11
-40.812168
 21
-0.819698
 31
0.0
  0
LINE
  8
0
 62
     3
  5
F1
 10
-40.812168
 20
-0.819698
 30
0.0
 11
-41.631519
 21
1.431427
 31
0.0
  0
LINE
  8
0
 62
     3
  5
F2
 10
-41.631519
 20
1.431427
 30
0.0
 11
-42.38295
 21
1.431427
 31
0.0
  0
LINE
  8
0
 62
     3
  5
F3
 10
-42.38295
 20
1.431427
 30
0.0
 11
-43.202293
 21
-0.819698
 31
0.0
  0
LINE
  8
0
 62
     3
  5
F4
 10
-43.202293
 20
-0.819698
 30
0.0
 11
-43.953735
 21
-0.819698
 31
0.0
  0
LINE
  8
0
 62
     3
  5
F5
 10
-43.953735
 20
-0.819698
 30
0.0
 11
-44.773087
 21
1.431427
 31
0.0
  0
LINE
  8
0
 62
     3
  5
F6
 10
-44.773087
 20
1.431427
 30
0.0
 11
-45.524521
 21
1.431427
 31
0.0
  0
LINE
  8
0
 62
     3
  5
F7
 10
-32.958241
 20
1.431427
 30
0.0
 11
-33.777588
 21
-0.819698
 31
0.0
  0
LINE
  8
0
 62
     3
  5
F8
 10
-33.777588
 20
-0.819698
 30
0.0
 11
-34.529037
 21
-0.819698
 31
0.0
  0
LINE
  8
0
 62
     3
  5
F9
 10
-34.529037
 20
-0.819698
 30
0.0
 11
-35.348385
 21
1.431427
 31
0.0
  0
LINE
  8
0
 62
     3
  5
FA
 10
-35.348385
 20
1.431427
 30
0.0
 11
-36.099804
 21
1.431427
 31
0.0
  0
LINE
  8
0
 62
     3
  5
FB
 10
-36.099804
 20
1.431427
 30
0.0
 11
-36.919159
 21
-0.819698
 31
0.0
  0
LINE
  8
0
 62
     3
  5
FC
 10
-36.919159
 20
-0.819698
 30
0.0
 11
-37.670601
 21
-0.819698
 31
0.0
  0
LINE
  8
0
 62
     3
  5
FD
 10
-37.670601
 20
-0.819698
 30
0.0
 11
-38.489952
 21
1.431427
 31
0.0
  0
LINE
  8
0
 62
     3
  5
FE
 10
-38.489952
 20
1.431427
 30
0.0
 11
-39.241375
 21
1.431427
 31
0.0
  0
LINE
  8
0
 62
     3
  5
FF
 10
-26.675104
 20
1.431427
 30
0.0
 11
-27.494444
 21
-0.819698
 31
0.0
  0
LINE
  8
0
 62
     3
  5
100
 10
-27.494444
 20
-0.819698
 30
0.0
 11
-28.245888
 21
-0.819698
 31
0.0
  0
LINE
  8
0
 62
     3
  5
101
 10
-28.245888
 20
-0.819698
 30
0.0
 11
-29.065241
 21
1.431427
 31
0.0
  0
LINE
  8
0
 62
     3
  5
102
 10
-29.065241
 20
1.431427
 30
0.0
 11
-29.816669
 21
1.431427
 31
0.0
  0
LINE
  8
0
 62
     3
  5
103
 10
-29.816669
 20
1.431427
 30
0.0
 11
-30.636023
 21
-0.819698
 31
0.0
  0
LINE
  8
0
 62
     3
  5
104
 10
-30.636023
 20
-0.819698
 30
0.0
 11
-31.387466
 21
-0.819698
 31
0.0
  0
LINE
  8
0
 62
     3
  5
105
 10
-31.387466
 20
-0.819698
 30
0.0
 11
-32.206806
 21
1.431427
 31
0.0
  0
LINE
  8
0
 62
     3
  5
106
 10
-32.206806
 20
1.431427
 30
0.0
 11
-32.958241
 21
1.431427
 31
0.0
  0
LINE
  8
0
 62
     3
  5
107
 10
-20.391956
 20
1.431427
 30
0.0
 11
-21.211309
 21
-0.819698
 31
0.0
  0
LINE
  8
0
 62
     3
  5
108
 10
-21.211309
 20
-0.819698
 30
0.0
 11
-21.962753
 21
-0.819698
 31
0.0
  0
LINE
  8
0
 62
     3
  5
109
 10
-21.962753
 20
-0.819698
 30
0.0
 11
-22.782104
 21
1.431427
 31
0.0
  0
LINE
  8
0
 62
     3
  5
10A
 10
-22.782104
 20
1.431427
 30
0.0
 11
-23.533537
 21
1.431427
 31
0.0
  0
LINE
  8
0
 62
     3
  5
10B
 10
-23.533537
 20
1.431427
 30
0.0
 11
-24.352877
 21
-0.819698
 31
0.0
  0
LINE
  8
0
 62
     3
  5
10C
 10
-24.352877
 20
-0.819698
 30
0.0
 11
-25.104321
 21
-0.819698
 31
0.0
  0
LINE
  8
0
 62
     3
  5
10D
 10
-25.104321
 20
-0.819698
 30
0.0
 11
-25.923674
 21
1.431427
 31
0.0
  0
LINE
  8
0
 62
     3
  5
10E
 10
-25.923674
 20
1.431427
 30
0.0
 11
-26.675104
 21
1.431427
 31
0.0
  0
LINE
  8
0
 62
     3
  5
10F
 10
-14.108823
 20
1.431427
 30
0.0
 11
-14.928176
 21
-0.819698
 31
0.0
  0
LINE
  8
0
 62
     3
  5
110
 10
-14.928176
 20
-0.819698
 30
0.0
 11
-15.679619
 21
-0.819698
 31
0.0
  0
LINE
  8
0
 62
     3
  5
111
 10
-15.679619
 20
-0.819698
 30
0.0
 11
-16.498959
 21
1.431427
 31
0.0
  0
LINE
  8
0
 62
     3
  5
112
 10
-16.498959
 20
1.431427
 30
0.0
 11
-17.250391
 21
1.431427
 31
0.0
  0
LINE
  8
0
 62
     3
  5
113
 10
-17.250391
 20
1.431427
 30
0.0
 11
-18.069742
 21
-0.819698
 31
0.0
  0
LINE
  8
0
 62
     3
  5
114
 10
-18.069742
 20
-0.819698
 30
0.0
 11
-18.821186
 21
-0.819698
 31
0.0
  0
LINE
  8
0
 62
     3
  5
115
 10
-18.821186
 20
-0.819698
 30
0.0
 11
-19.640537
 21
1.431427
 31
0.0
  0
LINE
  8
0
 62
     3
  5
116
 10
-19.640537
 20
1.431427
 30
0.0
 11
-20.391956
 21
1.431427
 31
0.0
  0
LINE
  8
0
 62
     3
  5
117
 10
-7.825689
 20
1.431427
 30
0.0
 11
-8.645028
 21
-0.819698
 31
0.0
  0
LINE
  8
0
 62
     3
  5
118
 10
-8.645028
 20
-0.819698
 30
0.0
 11
-9.396473
 21
-0.819698
 31
0.0
  0
LINE
  8
0
 62
     3
  5
119
 10
-9.396473
 20
-0.819698
 30
0.0
 11
-10.215824
 21
1.431427
 31
0.0
  0
LINE
  8
0
 62
     3
  5
11A
 10
-10.215824
 20
1.431427
 30
0.0
 11
-10.967257
 21
1.431427
 31
0.0
  0
LINE
  8
0
 62
     3
  5
11B
 10
-10.967257
 20
1.431427
 30
0.0
 11
-11.786608
 21
-0.819698
 31
0.0
  0
LINE
  8
0
 62
     3
  5
11C
 10
-11.786608
 20
-0.819698
 30
0.0
 11
-12.538052
 21
-0.819698
 31
0.0
  0
LINE
  8
0
 62
     3
  5
11D
 10
-12.538052
 20
-0.819698
 30
0.0
 11
-13.357392
 21
1.431427
 31
0.0
  0
LINE
  8
0
 62
     3
  5
11E
 10
-13.357392
 20
1.431427
 30
0.0
 11
-14.108823
 21
1.431427
 31
0.0
  0
LINE
  8
0
 62
     3
  5
11F
 10
-1.542543
 20
1.431427
 30
0.0
 11
-2.361894
 21
-0.819698
 31
0.0
  0
LINE
  8
0
 62
     3
  5
120
 10
-2.361894
 20
-0.819698
 30
0.0
 11
-3.113338
 21
-0.819698
 31
0.0
  0
LINE
  8
0
 62
     3
  5
121
 10
-3.113338
 20
-0.819698
 30
0.0
 11
-3.93269
 21
1.431427
 31
0.0
  0
LINE
  8
0
 62
     3
  5
122
 10
-3.93269
 20
1.431427
 30
0.0
 11
-4.684122
 21
1.431427
 31
0.0
  0
LINE
  8
0
 62
     3
  5
123
 10
-4.684122
 20
1.431427
 30
0.0
 11
-5.503461
 21
-0.819698
 31
0.0
  0
LINE
  8
0
 62
     3
  5
124
 10
-5.503461
 20
-0.819698
 30
0.0
 11
-6.254906
 21
-0.819698
 31
0.0
  0
LINE
  8
0
 62
     3
  5
125
 10
-6.254906
 20
-0.819698
 30
0.0
 11
-7.074257
 21
1.431427
 31
0.0
  0
LINE
  8
0
 62
     3
  5
126
 10
-7.074257
 20
1.431427
 30
0.0
 11
-7.825689
 21
1.431427
 31
0.0
  0
LINE
  8
0
 62
     3
  5
127
 10
4.740592
 20
1.431427
 30
0.0
 11
3.92124
 21
-0.819698
 31
0.0
  0
LINE
  8
0
 62
     3
  5
128
 10
3.92124
 20
-0.819698
 30
0.0
 11
3.169796
 21
-0.819698
 31
0.0
  0
LINE
  8
0
 62
     3
  5
129
 10
3.169796
 20
-0.819698
 30
0.0
 11
2.350456
 21
1.431427
 31
0.0
  0
LINE
  8
0
 62
     3
  5
12A
 10
2.350456
 20
1.431427
 30
0.0
 11
1.599024
 21
1.431427
 31
0.0
  0
LINE
  8
0
 62
     3
  5
12B
 10
1.599024
 20
1.431427
 30
0.0
 11
0.779673
 21
-0.819698
 31
0.0
  0
LINE
  8
0
 62
     3
  5
12C
 10
0.779673
 20
-0.819698
 30
0.0
 11
0.028229
 21
-0.819698
 31
0.0
  0
LINE
  8
0
 62
     3
  5
12D
 10
0.028229
 20
-0.819698
 30
0.0
 11
-0.791123
 21
1.431427
 31
0.0
  0
LINE
  8
0
 62
     3
  5
12E
 10
-0.791123
 20
1.431427
 30
0.0
 11
-1.542543
 21
1.431427
 31
0.0
  0
LINE
  8
0
 62
     3
  5
12F
 10
11.023726
 20
1.431427
 30
0.0
 11
10.204374
 21
-0.819698
 31
0.0
  0
LINE
  8
0
 62
     3
  5
130
 10
10.204374
 20
-0.819698
 30
0.0
 11
9.45293
 21
-0.819698
 31
0.0
  0
LINE
  8
0
 62
     3
  5
131
 10
9.45293
 20
-0.819698
 30
0.0
 11
8.633578
 21
1.431427
 31
0.0
  0
LINE
  8
0
 62
     3
  5
132
 10
8.633578
 20
1.431427
 30
0.0
 11
7.882158
 21
1.431427
 31
0.0
  0
LINE
  8
0
 62
     3
  5
133
 10
7.882158
 20
1.431427
 30
0.0
 11
7.062807
 21
-0.819698
 31
0.0
  0
LINE
  8
0
 62
     3
  5
134
 10
7.062807
 20
-0.819698
 30
0.0
 11
6.311363
 21
-0.819698
 31
0.0
  0
LINE
  8
0
 62
     3
  5
135
 10
6.311363
 20
-0.819698
 30
0.0
 11
5.492023
 21
1.431427
 31
0.0
  0
LINE
  8
0
 62
     3
  5
136
 10
5.492023
 20
1.431427
 30
0.0
 11
4.740592
 21
1.431427
 31
0.0
  0
LINE
  8
0
 62
     3
  5
137
 10
17.30686
 20
1.431427
 30
0.0
 11
16.487509
 21
-0.819698
 31
0.0
  0
LINE
  8
0
 62
     3
  5
138
 10
16.487509
 20
-0.819698
 30
0.0
 11
15.736064
 21
-0.819698
 31
0.0
  0
LINE
  8
0
 62
     3
  5
139
 10
15.736064
 20
-0.819698
 30
0.0
 11
14.916737
 21
1.431427
 31
0.0
  0
LINE
  8
0
 62
     3
  5
13A
 10
14.916737
 20
1.431427
 30
0.0
 11
14.165293
 21
1.431427
 31
0.0
  0
LINE
  8
0
 62
     3
  5
13B
 10
14.165293
 20
1.431427
 30
0.0
 11
13.345942
 21
-0.819698
 31
0.0
  0
LINE
  8
0
 62
     3
  5
13C
 10
13.345942
 20
-0.819698
 30
0.0
 11
12.594497
 21
-0.819698
 31
0.0
  0
LINE
  8
0
 62
     3
  5
13D
 10
12.594497
 20
-0.819698
 30
0.0
 11
11.77517
 21
1.431427
 31
0.0
  0
LINE
  8
0
 62
     3
  5
13E
 10
11.77517
 20
1.431427
 30
0.0
 11
11.023726
 21
1.431427
 31
0.0
  0
LINE
  8
0
 62
     3
  5
13F
 10
20.448427
 20
1.431427
 30
0.0
 11
19.629099
 21
-0.819698
 31
0.0
  0
LINE
  8
0
 62
     3
  5
140
 10
19.629099
 20
-0.819698
 30
0.0
 11
18.877655
 21
-0.819698
 31
0.0
  0
LINE
  8
0
 62
     3
  5
141
 10
18.877655
 20
-0.819698
 30
0.0
 11
18.058304
 21
1.431427
 31
0.0
  0
LINE
  8
0
 62
     3
  5
142
 10
18.058304
 20
1.431427
 30
0.0
 11
17.30686
 21
1.431427
 31
0.0
  0
LINE
  8
0
 62
     3
  5
143
 10
26.731586
 20
1.431427
 30
0.0
 11
25.912233
 21
-0.819698
 31
0.0
  0
LINE
  8
0
 62
     3
  5
144
 10
25.912233
 20
-0.819698
 30
0.0
 11
25.160789
 21
-0.819698
 31
0.0
  0
LINE
  8
0
 62
     3
  5
145
 10
25.160789
 20
-0.819698
 30
0.0
 11
24.341438
 21
1.431427
 31
0.0
  0
LINE
  8
0
 62
     3
  5
146
 10
24.341438
 20
1.431427
 30
0.0
 11
23.590019
 21
1.431427
 31
0.0
  0
LINE
  8
0
 62
     3
  5
147
 10
23.590019
 20
1.431427
 30
0.0
 11
22.770666
 21
-0.819698
 31
0.0
  0
LINE
  8
0
 62
     3
  5
148
 10
22.770666
 20
-0.819698
 30
0.0
 11
22.019222
 21
-0.819698
 31
0.0
  0
LINE
  8
0
 62
     3
  5
149
 10
22.019222
 20
-0.819698
 30
0.0
 11
21.199871
 21
1.431427
 31
0.0
  0
LINE
  8
0
 62
     3
  5
14A
 10
21.199871
 20
1.431427
 30
0.0
 11
20.448427
 21
1.431427
 31
0.0
  0
LINE
  8
0
 62
     3
  5
14B
 10
33.014717
 20
1.431427
 30
0.0
 11
32.195366
 21
-0.819698
 31
0.0
  0
LINE
  8
0
 62
     3
  5
14C
 10
32.195366
 20
-0.819698
 30
0.0
 11
31.443924
 21
-0.819698
 31
0.0
  0
LINE
  8
0
 62
     3
  5
14D
 10
31.443924
 20
-0.819698
 30
0.0
 11
30.624573
 21
1.431427
 31
0.0
  0
LINE
  8
0
 62
     3
  5
14E
 10
30.624573
 20
1.431427
 30
0.0
 11
29.873154
 21
1.431427
 31
0.0
  0
LINE
  8
0
 62
     3
  5
14F
 10
29.873154
 20
1.431427
 30
0.0
 11
29.053801
 21
-0.819698
 31
0.0
  0
LINE
  8
0
 62
     3
  5
150
 10
29.053801
 20
-0.819698
 30
0.0
 11
28.302357
 21
-0.819698
 31
0.0
  0
LINE
  8
0
 62
     3
  5
151
 10
28.302357
 20
-0.819698
 30
0.0
 11
27.483006
 21
1.431427
 31
0.0
  0
LINE
  8
0
 62
     3
  5
152
 10
27.483006
 20
1.431427
 30
0.0
 11
26.731586
 21
1.431427
 31
0.0
  0
LINE
  8
0
 62
     3
  5
153
 10
39.297855
 20
1.431427
 30
0.0
 11
38.4785
 21
-0.819698
 31
0.0
  0
LINE
  8
0
 62
     3
  5
154
 10
38.4785
 20
-0.819698
 30
0.0
 11
37.727058
 21
-0.819698
 31
0.0
  0
LINE
  8
0
 62
     3
  5
155
 10
37.727058
 20
-0.819698
 30
0.0
 11
36.907703
 21
1.431427
 31
0.0
  0
LINE
  8
0
 62
     3
  5
156
 10
36.907703
 20
1.431427
 30
0.0
 11
36.156288
 21
1.431427
 31
0.0
  0
LINE
  8
0
 62
     3
  5
157
 10
36.156288
 20
1.431427
 30
0.0
 11
35.336937
 21
-0.819698
 31
0.0
  0
LINE
  8
0
 62
     3
  5
158
 10
35.336937
 20
-0.819698
 30
0.0
 11
34.585491
 21
-0.819698
 31
0.0
  0
LINE
  8
0
 62
     3
  5
159
 10
34.585491
 20
-0.819698
 30
0.0
 11
33.76614
 21
1.431427
 31
0.0
  0
LINE
  8
0
 62
     3
  5
15A
 10
33.76614
 20
1.431427
 30
0.0
 11
33.014717
 21
1.431427
 31
0.0
  0
LINE
  8
0
 62
     3
  5
15B
 10
42.439423
 20
1.431427
 30
0.0
 11
41.620071
 21
-0.819698
 31
0.0
  0
LINE
  8
0
 62
     3
  5
15C
 10
41.620071
 20
-0.819698
 30
0.0
 11
40.868626
 21
-0.819698
 31
0.0
  0
LINE
  8
0
 62
     3
  5
15D
 10
40.868626
 20
-0.819698
 30
0.0
 11
40.049274
 21
1.431427
 31
0.0
  0
LINE
  8
0
 62
     3
  5
15E
 10
40.049274
 20
1.431427
 30
0.0
 11
39.297855
 21
1.431427
 31
0.0
  0
LINE
  8
0
 62
     3
  5
15F
 10
48.722553
 20
1.431427
 30
0.0
 11
47.903206
 21
-0.819698
 31
0.0
  0
LINE
  8
0
 62
     3
  5
160
 10
47.903206
 20
-0.819698
 30
0.0
 11
47.15176
 21
-0.819698
 31
0.0
  0
LINE
  8
0
 62
     3
  5
161
 10
47.15176
 20
-0.819698
 30
0.0
 11
46.332409
 21
1.431427
 31
0.0
  0
LINE
  8
0
 62
     3
  5
162
 10
46.332409
 20
1.431427
 30
0.0
 11
45.58099
 21
1.431427
 31
0.0
  0
LINE
  8
0
 62
     3
  5
163
 10
45.58099
 20
1.431427
 30
0.0
 11
44.761635
 21
-0.819698
 31
0.0
  0
LINE
  8
0
 62
     3
  5
164
 10
44.761635
 20
-0.819698
 30
0.0
 11
44.010193
 21
-0.819698
 31
0.0
  0
LINE
  8
0
 62
     3
  5
165
 10
44.010193
 20
-0.819698
 30
0.0
 11
43.190842
 21
1.431427
 31
0.0
  0
LINE
  8
0
 62
     3
  5
166
 10
43.190842
 20
1.431427
 30
0.0
 11
42.439423
 21
1.431427
 31
0.0
  0
LINE
  8
0
 62
     3
  5
167
 10
55.005688
 20
1.431427
 30
0.0
 11
54.186363
 21
-0.819698
 31
0.0
  0
LINE
  8
0
 62
     3
  5
168
 10
54.186363
 20
-0.819698
 30
0.0
 11
53.434917
 21
-0.819698
 31
0.0
  0
LINE
  8
0
 62
     3
  5
169
 10
53.434917
 20
-0.819698
 30
0.0
 11
52.615566
 21
1.431427
 31
0.0
  0
LINE
  8
0
 62
     3
  5
16A
 10
52.615566
 20
1.431427
 30
0.0
 11
51.864124
 21
1.431427
 31
0.0
  0
LINE
  8
0
 62
     3
  5
16B
 10
51.864124
 20
1.431427
 30
0.0
 11
51.044769
 21
-0.819698
 31
0.0
  0
LINE
  8
0
 62
     3
  5
16C
 10
51.044769
 20
-0.819698
 30
0.0
 11
50.293327
 21
-0.819698
 31
0.0
  0
LINE
  8
0
 62
     3
  5
16D
 10
50.293327
 20
-0.819698
 30
0.0
 11
49.474003
 21
1.431427
 31
0.0
  0
LINE
  8
0
 62
     3
  5
16E
 10
49.474003
 20
1.431427
 30
0.0
 11
48.722553
 21
1.431427
 31
0.0
  0
LINE
  8
0
 62
     3
  5
16F
 10
61.288849
 20
1.431427
 30
0.0
 11
60.469498
 21
-0.819698
 31
0.0
  0
LINE
  8
0
 62
     3
  5
170
 10
60.469498
 20
-0.819698
 30
0.0
 11
59.718056
 21
-0.819698
 31
0.0
  0
LINE
  8
0
 62
     3
  5
171
 10
59.718056
 20
-0.819698
 30
0.0
 11
58.898701
 21
1.431427
 31
0.0
  0
LINE
  8
0
 62
     3
  5
172
 10
58.898701
 20
1.431427
 30
0.0
 11
58.147259
 21
1.431427
 31
0.0
  0
LINE
  8
0
 62
     3
  5
173
 10
58.147259
 20
1.431427
 30
0.0
 11
57.327927
 21
-0.819698
 31
0.0
  0
LINE
  8
0
 62
     3
  5
174
 10
57.327927
 20
-0.819698
 30
0.0
 11
56.576485
 21
-0.819698
 31
0.0
  0
LINE
  8
0
 62
     3
  5
175
 10
56.576485
 20
-0.819698
 30
0.0
 11
55.757133
 21
1.431427
 31
0.0
  0
LINE
  8
0
 62
     3
  5
176
 10
55.757133
 20
1.431427
 30
0.0
 11
55.005688
 21
1.431427
 31
0.0
  0
LINE
  8
0
 62
     3
  5
177
 10
64.430412
 20
1.431427
 30
0.0
 11
63.611042
 21
-0.819698
 31
0.0
  0
LINE
  8
0
 62
     3
  5
178
 10
63.611042
 20
-0.819698
 30
0.0
 11
62.859619
 21
-0.819698
 31
0.0
  0
LINE
  8
0
 62
     3
  5
179
 10
62.859619
 20
-0.819698
 30
0.0
 11
62.040245
 21
1.431427
 31
0.0
  0
LINE
  8
0
 62
     3
  5
17A
 10
62.040245
 20
1.431427
 30
0.0
 11
61.288849
 21
1.431427
 31
0.0
  0
LINE
  8
0
 62
     3
  5
17B
 10
70.713524
 20
1.431427
 30
0.0
 11
69.894226
 21
-0.819698
 31
0.0
  0
LINE
  8
0
 62
     3
  5
17C
 10
69.894226
 20
-0.819698
 30
0.0
 11
69.142731
 21
-0.819698
 31
0.0
  0
LINE
  8
0
 62
     3
  5
17D
 10
69.142731
 20
-0.819698
 30
0.0
 11
68.323425
 21
1.431427
 31
0.0
  0
LINE
  8
0
 62
     3
  5
17E
 10
68.323425
 20
1.431427
 30
0.0
 11
67.571983
 21
1.431427
 31
0.0
  0
LINE
  8
0
 62
     3
  5
17F
 10
67.571983
 20
1.431427
 30
0.0
 11
66.752632
 21
-0.819698
 31
0.0
  0
LINE
  8
0
 62
     3
  5
180
 10
66.752632
 20
-0.819698
 30
0.0
 11
66.00119
 21
-0.819698
 31
0.0
  0
LINE
  8
0
 62
     3
  5
181
 10
66.00119
 20
-0.819698
 30
0.0
 11
65.181831
 21
1.431427
 31
0.0
  0
LINE
  8
0
 62
     3
  5
182
 10
65.181831
 20
1.431427
 30
0.0
 11
64.430412
 21
1.431427
 31
0.0
  0
LINE
  8
0
 62
     3
  5
183
 10
76.996712
 20
1.431427
 30
0.0
 11
76.177307
 21
-0.819698
 31
0.0
  0
LINE
  8
0
 62
     3
  5
184
 10
76.177307
 20
-0.819698
 30
0.0
 11
75.425911
 21
-0.819698
 31
0.0
  0
LINE
  8
0
 62
     3
  5
185
 10
75.425911
 20
-0.819698
 30
0.0
 11
74.606537
 21
1.431427
 31
0.0
  0
LINE
  8
0
 62
     3
  5
186
 10
74.606537
 20
1.431427
 30
0.0
 11
73.855118
 21
1.431427
 31
0.0
  0
LINE
  8
0
 62
     3
  5
187
 10
73.855118
 20
1.431427
 30
0.0
 11
73.035767
 21
-0.819698
 31
0.0
  0
LINE
  8
0
 62
     3
  5
188
 10
73.035767
 20
-0.819698
 30
0.0
 11
72.284317
 21
-0.819698
 31
0.0
  0
LINE
  8
0
 62
     3
  5
189
 10
72.284317
 20
-0.819698
 30
0.0
 11
71.464973
 21
1.431427
 31
0.0
  0
LINE
  8
0
 62
     3
  5
18A
 10
71.464973
 20
1.431427
 30
0.0
 11
70.713524
 21
1.431427
 31
0.0
  0
LINE
  8
0
 62
     3
  5
18B
 10
83.279823
 20
1.431427
 30
0.0
 11
82.460495
 21
-0.819698
 31
0.0
  0
LINE
  8
0
 62
     3
  5
18C
 10
82.460495
 20
-0.819698
 30
0.0
 11
81.709023
 21
-0.819698
 31
0.0
  0
LINE
  8
0
 62
     3
  5
18D
 10
81.709023
 20
-0.819698
 30
0.0
 11
80.889694
 21
1.431427
 31
0.0
  0
LINE
  8
0
 62
     3
  5
18E
 10
80.889694
 20
1.431427
 30
0.0
 11
80.138252
 21
1.431427
 31
0.0
  0
LINE
  8
0
 62
     3
  5
18F
 10
80.138252
 20
1.431427
 30
0.0
 11
79.318901
 21
-0.819698
 31
0.0
  0
LINE
  8
0
 62
     3
  5
190
 10
79.318901
 20
-0.819698
 30
0.0
 11
78.567459
 21
-0.819698
 31
0.0
  0
LINE
  8
0
 62
     3
  5
191
 10
78.567459
 20
-0.819698
 30
0.0
 11
77.7481
 21
1.431427
 31
0.0
  0
LINE
  8
0
 62
     3
  5
192
 10
77.7481
 20
1.431427
 30
0.0
 11
76.996712
 21
1.431427
 31
0.0
  0
LINE
  8
0
 62
     3
  5
193
 10
86.421387
 20
1.431427
 30
0.0
 11
85.602013
 21
-0.819698
 31
0.0
  0
LINE
  8
0
 62
     3
  5
194
 10
85.602013
 20
-0.819698
 30
0.0
 11
84.850586
 21
-0.819698
 31
0.0
  0
LINE
  8
0
 62
     3
  5
195
 10
84.850586
 20
-0.819698
 30
0.0
 11
84.031212
 21
1.431427
 31
0.0
  0
LINE
  8
0
 62
     3
  5
196
 10
84.031212
 20
1.431427
 30
0.0
 11
83.279823
 21
1.431427
 31
0.0
  0
LINE
  8
0
 62
     3
  5
197
 10
92.704498
 20
1.431427
 30
0.0
 11
91.885193
 21
-0.819698
 31
0.0
  0
LINE
  8
0
 62
     3
  5
198
 10
91.885193
 20
-0.819698
 30
0.0
 11
91.133698
 21
-0.819698
 31
0.0
  0
LINE
  8
0
 62
     3
  5
199
 10
91.133698
 20
-0.819698
 30
0.0
 11
90.314392
 21
1.431427
 31
0.0
  0
LINE
  8
0
 62
     3
  5
19A
 10
90.314392
 20
1.431427
 30
0.0
 11
89.56295
 21
1.431427
 31
0.0
  0
LINE
  8
0
 62
     3
  5
19B
 10
89.56295
 20
1.431427
 30
0.0
 11
88.743599
 21
-0.819698
 31
0.0
  0
LINE
  8
0
 62
     3
  5
19C
 10
88.743599
 20
-0.819698
 30
0.0
 11
87.992157
 21
-0.819698
 31
0.0
  0
LINE
  8
0
 62
     3
  5
19D
 10
87.992157
 20
-0.819698
 30
0.0
 11
87.172806
 21
1.431427
 31
0.0
  0
LINE
  8
0
 62
     3
  5
19E
 10
87.172806
 20
1.431427
 30
0.0
 11
86.421387
 21
1.431427
 31
0.0
  0
LINE
  8
0
 62
     3
  5
19F
 10
95.846092
 20
1.431427
 30
0.0
 11
95.026733
 21
-0.819698
 31
0.0
  0
LINE
  8
0
 62
     3
  5
1A0
 10
95.026733
 20
-0.819698
 30
0.0
 11
94.275291
 21
-0.819698
 31
0.0
  0
LINE
  8
0
 62
     3
  5
1A1
 10
94.275291
 20
-0.819698
 30
0.0
 11
93.45594
 21
1.431427
 31
0.0
  0
LINE
  8
0
 62
     3
  5
1A2
 10
93.45594
 20
1.431427
 30
0.0
 11
92.704498
 21
1.431427
 31
0.0
  0
LINE
  8
0
 62
     3
  5
1A3
 10
98.987625
 20
1.431427
 30
0.0
 11
98.168327
 21
-0.819698
 31
0.0
  0
LINE
  8
0
 62
     3
  5
1A4
 10
98.168327
 20
-0.819698
 30
0.0
 11
97.416832
 21
-0.819698
 31
0.0
  0
LINE
  8
0
 62
     3
  5
1A5
 10
97.416832
 20
-0.819698
 30
0.0
 11
96.597534
 21
1.431427
 31
0.0
  0
LINE
  8
0
 62
     3
  5
1A6
 10
96.597534
 20
1.431427
 30
0.0
 11
95.846092
 21
1.431427
 31
0.0
  0
LINE
  8
0
 62
     3
  5
1A7
 10
102.129219
 20
1.431427
 30
0.0
 11
101.309845
 21
-0.819698
 31
0.0
  0
LINE
  8
0
 62
     3
  5
1A8
 10
101.309845
 20
-0.819698
 30
0.0
 11
100.558426
 21
-0.819698
 31
0.0
  0
LINE
  8
0
 62
     3
  5
1A9
 10
100.558426
 20
-0.819698
 30
0.0
 11
99.739052
 21
1.431427
 31
0.0
  0
LINE
  8
0
 62
     3
  5
1AA
 10
99.739052
 20
1.431427
 30
0.0
 11
98.987625
 21
1.431427
 31
0.0
  0
LINE
  8
0
 62
     3
  5
1AB
 10
103.699989
 20
-0.819698
 30
0.0
 11
102.880638
 21
1.431427
 31
0.0
  0
LINE
  8
0
 62
     3
  5
1AC
 10
102.880638
 20
1.431427
 30
0.0
 11
102.129219
 21
1.431427
 31
0.0
  0
LINE
  8
STANDARD
 62
     3
  5
1AD
 10
104.225853
 20
-10.574573
 30
0.0
 11
104.225853
 21
-0.819698
 31
0.0
  0
LINE
  8
STANDARD
 62
     3
  5
1AE
 10
103.699989
 20
-0.819698
 30
0.0
 11
104.225853
 21
-0.819698
 31
0.0
  0
ENDSEC
  0
EOF
