  0
SECTION
  2
HEADER
  9
$ACADVER
  1
AC1009
  9
$INSBASE
 10
0.0
 20
0.0
 30
0.0
  9
$EXTMIN
 10
13.276054
 20
10.163948
 30
0.0
  9
$EXTMAX
 10
21.340055
 20
16.230072
 30
0.0
  9
$LIMMIN
 10
0.0
 20
0.0
  9
$LIMMAX
 10
0.0
 20
0.0
  9
$ORTHOMODE
 70
     0
  9
$REGENMODE
 70
     1
  9
$FILLMODE
 70
     1
  9
$QTEXTMODE
 70
     0
  9
$MIRRTEXT
 70
     1
  9
$DRAGMODE
 70
     2
  9
$LTSCALE
 40
1.0
  9
$OSMODE
 70
     0
  9
$ATTMODE
 70
     1
  9
$TEXTSIZE
 40
0.2
  9
$TRACEWID
 40
0.05
  9
$TEXTSTYLE
  7
STANDARD
  9
$CLAYER
  8
0
  9
$CELTYPE
  6
CONTINUOUS
  9
$CECOLOR
 62
   256
  9
$DIMSCALE
 40
1.0
  9
$DIMASZ
 40
0.18
  9
$DIMEXO
 40
0.0625
  9
$DIMDLI
 40
0.38
  9
$DIMRND
 40
0.0
  9
$DIMDLE
 40
0.0
  9
$DIMEXE
 40
0.18
  9
$DIMTP
 40
0.0
  9
$DIMTM
 40
0.0
  9
$DIMTXT
 40
0.18
  9
$DIMCEN
 40
0.09
  9
$DIMTSZ
 40
0.0
  9
$DIMTOL
 70
     0
  9
$DIMLIM
 70
     0
  9
$DIMTIH
 70
     1
  9
$DIMTOH
 70
     1
  9
$DIMSE1
 70
     0
  9
$DIMSE2
 70
     0
  9
$DIMTAD
 70
     0
  9
$DIMZIN
 70
     0
  9
$DIMBLK
  1

  9
$DIMASO
 70
     1
  9
$DIMSHO
 70
     1
  9
$DIMPOST
  1

  9
$DIMAPOST
  1

  9
$DIMALT
 70
     0
  9
$DIMALTD
 70
     2
  9
$DIMALTF
 40
25.4
  9
$DIMLFAC
 40
1.0
  9
$DIMTOFL
 70
     0
  9
$DIMTVP
 40
0.0
  9
$DIMTIX
 70
     0
  9
$DIMSOXD
 70
     0
  9
$DIMSAH
 70
     0
  9
$DIMBLK1
  1

  9
$DIMBLK2
  1

  9
$DIMSTYLE
  2
STANDARD
  9
$DIMCLRD
 70
     0
  9
$DIMCLRE
 70
     0
  9
$DIMCLRT
 70
     0
  9
$DIMTFAC
 40
1.0
  9
$DIMGAP
 40
0.09
  9
$LUNITS
 70
     2
  9
$LUPREC
 70
     4
  9
$AXISMODE
 70
     0
  9
$AXISUNIT
 10
0.0
 20
0.0
  9
$SKETCHINC
 40
0.1
  9
$FILLETRAD
 40
0.0
  9
$AUNITS
 70
     0
  9
$AUPREC
 70
     0
  9
$MENU
  1
acad
  9
$ELEVATION
 40
0.0
  9
$PELEVATION
 40
0.0
  9
$THICKNESS
 40
0.0
  9
$LIMCHECK
 70
     0
  9
$BLIPMODE
 70
     1
  9
$CHAMFERA
 40
0.0
  9
$CHAMFERB
 40
0.0
  9
$SKPOLY
 70
     0
  9
$TDCREATE
 40
0.000000000
  9
$TDUPDATE
 40
0.000000000
  9
$TDINDWG
 40
0.0000000000
  9
$TDUSRTIMER
 40
0.0000000000
  9
$USRTIMER
 70
     1
  9
$ANGBASE
 50
0.0
  9
$ANGDIR
 70
     0
  9
$PDMODE
 70
     0
  9
$PDSIZE
 40
0.0
  9
$PLINEWID
 40
0.0
  9
$COORDS
 70
     0
  9
$SPLFRAME
 70
     0
  9
$SPLINETYPE
 70
     6
  9
$SPLINESEGS
 70
     8
  9
$ATTDIA
 70
     0
  9
$ATTREQ
 70
     1
  9
$HANDLING
 70
     1
  9
$HANDSEED
  5
1A0
  9
$SURFTAB1
 70
     6
  9
$SURFTAB2
 70
     6
  9
$SURFTYPE
 70
     6
  9
$SURFU
 70
     6
  9
$SURFV
 70
     6
  9
$UCSNAME
  2

  9
$UCSORG
 10
0.0
 20
0.0
 30
0.0
  9
$UCSXDIR
 10
1.0
 20
0.0
 30
0.0
  9
$UCSYDIR
 10
0.0
 20
1.0
 30
0.0
  9
$PUCSNAME
  2

  9
$PUCSORG
 10
0.0
 20
0.0
 30
0.0
  9
$PUCSXDIR
 10
1.0
 20
0.0
 30
0.0
  9
$PUCSYDIR
 10
0.0
 20
1.0
 30
0.0
  9
$USERI1
 70
     0
  9
$USERI2
 70
     0
  9
$USERI3
 70
     0
  9
$USERI4
 70
     0
  9
$USERI5
 70
     0
  9
$USERR1
 40
0.0
  9
$USERR2
 40
0.0
  9
$USERR3
 40
0.0
  9
$USERR4
 40
0.0
  9
$USERR5
 40
0.0
  9
$WORLDVIEW
 70
     1
  9
$SHADEDGE
 70
     3
  9
$SHADEDIF
 70
    70
  9
$TILEMODE
 70
     1
  9
$MAXACTVP
 70
    16
  9
$PINSBASE
 10
0.0
 20
0.0
 30
0.0
  9
$PLIMCHECK
 70
     0
  9
$PEXTMIN
 10
1.000000E+20
 20
1.000000E+20
 30
1.000000E+20
  9
$PEXTMAX
 10
-1.000000E+20
 20
-1.000000E+20
 30
-1.000000E+20
  9
$PLIMMIN
 10
0.0
 20
0.0
  9
$PLIMMAX
 10
12.0
 20
9.0
  9
$UNITMODE
 70
     0
  9
$VISRETAIN
 70
     0
  9
$PLINEGEN
 70
     1
  9
$PSLTSCALE
 70
     0
  9
$TREEDEPTH
 70
  3020
  9
$DWGCODEPAGE
  3
dos850
  0
ENDSEC
  0
SECTION
  2
TABLES
  0
TABLE
  2
VPORT
 70
     1
  0
VPORT
  2
*ACTIVE
 70
     0
 10
0.0
 20
0.0
 11
1.0
 21
1.0
 12
6.591288
 22
4.579184
 13
0.0
 23
0.0
 14
1.0
 24
1.0
 15
0.0
 25
0.0
 16
0.0
 26
0.0
 36
1.0
 17
0.0
 27
0.0
 37
0.0
 40
9.158369
 41
0.688564
 42
50.0
 43
0.0
 44
0.0
 50
0.0
 51
0.0
 71
     0
 72
   100
 73
     1
 74
     1
 75
     0
 76
     0
 77
     0
 78
     0
  0
ENDTAB
  0
TABLE
  2
LTYPE
 70
     1
  0
LTYPE
  2
CONTINUOUS
 70
    64
  3
Solid line
 72
    65
 73
     0
 40
0.0
  0
ENDTAB
  0
TABLE
  2
LAYER
 70
     8
  0
LAYER
  2
0
 70
     0
 62
     7
  6
CONTINUOUS
  0
LAYER
  2
MERGE
 70
     0
 62
     7
  6
CONTINUOUS
  0
LAYER
  2
STANDARD
 70
     0
 62
     7
  6
CONTINUOUS
  0
LAYER
  2
OUTLINE
 70
     0
 62
     7
  6
CONTINUOUS
  0
LAYER
  2
HIDDEN
 70
     0
 62
     7
  6
CONTINUOUS
  0
LAYER
  2
CENTER
 70
     0
 62
     7
  6
CONTINUOUS
  0
LAYER
  2
CON
 70
     0
 62
     7
  6
CONTINUOUS
  0
LAYER
  2
DIMS
 70
     0
 62
     7
  6
CONTINUOUS
  0
ENDTAB
  0
TABLE
  2
STYLE
 70
     2
  0
STYLE
  2
STANDARD
 70
     0
 40
0.0
 41
1.0
 50
0.0
 71
     0
 42
0.0
  3
txt
  4

  0
STYLE
  2
STYLE1
 70
     0
 40
0.0
 41
1.0
 50
0.0
 71
     0
 42
0.0
  3
Arial.ttf
  4

  0
ENDTAB
  0
TABLE
  2
VIEW
 70
     0
  0
ENDTAB
  0
TABLE
  2
UCS
 70
     0
  0
ENDTAB
  0
TABLE
  2
APPID
 70
     1
  0
APPID
  2
ACAD
 70
     0
  0
ENDTAB
  0
TABLE
  2
DIMSTYLE
 70
     1
  0
DIMSTYLE
  2
STANDARD
 70
     0
  3

  4

  5

  6

  7

 40
1.0
 41
0.18
 42
0.0625
 43
0.38
 44
0.18
 45
0.0
 46
0.0
 47
0.0
 48
0.0
 71
     0
 72
     0
 73
     1
 74
     1
 75
     0
 76
     0
 77
     0
 78
     0
140
0.18
141
0.09
142
0.0
143
25.4
144
1.0
145
0.0
146
1.0
147
0.09
170
     0
171
     2
172
     0
173
     0
174
     0
175
     0
176
     0
177
     0
178
     0
  0
ENDTAB
  0
ENDSEC
  0
SECTION
  2
BLOCKS
  0
ENDSEC
  0
SECTION
  2
ENTITIES
  0
LINE
  8
OUTLINE
 62
     5
  5
25
 10
13.894248
 20
12.720803
 30
0.0
 11
13.894248
 21
13.794667
 31
0.0
  0
LINE
  8
OUTLINE
 62
     5
  5
26
 10
13.894248
 20
13.794667
 30
0.0
 11
14.0367
 21
13.794667
 31
0.0
  0
LINE
  8
OUTLINE
 62
     5
  5
27
 10
14.0367
 20
13.794667
 30
0.0
 11
14.0367
 21
13.367312
 31
0.0
  0
LINE
  8
OUTLINE
 62
     5
  5
28
 10
14.0367
 20
13.367312
 30
0.0
 11
14.179152
 21
13.367312
 31
0.0
  0
LINE
  8
OUTLINE
 62
     5
  5
29
 10
14.179152
 20
13.367312
 30
0.0
 11
14.179152
 21
13.794667
 31
0.0
  0
LINE
  8
OUTLINE
 62
     5
  5
2A
 10
14.179152
 20
13.794667
 30
0.0
 11
14.324946
 21
13.794667
 31
0.0
  0
LINE
  8
OUTLINE
 62
     5
  5
2B
 10
14.324946
 20
13.794667
 30
0.0
 11
14.324946
 21
12.717672
 31
0.0
  0
LINE
  8
OUTLINE
 62
     5
  5
2C
 10
14.324946
 20
12.717672
 30
0.0
 11
14.186624
 21
12.717672
 31
0.0
  0
LINE
  8
OUTLINE
 62
     5
  5
2D
 10
14.186624
 20
12.717672
 30
0.0
 11
14.186624
 21
13.182595
 31
0.0
  0
LINE
  8
OUTLINE
 62
     5
  5
2E
 10
14.186624
 20
13.182595
 30
0.0
 11
14.032928
 21
13.182595
 31
0.0
  0
LINE
  8
OUTLINE
 62
     5
  5
2F
 10
14.032928
 20
13.182595
 30
0.0
 11
14.032928
 21
12.717672
 31
0.0
  0
LINE
  8
OUTLINE
 62
     5
  5
30
 10
14.032928
 20
12.717672
 30
0.0
 11
13.894604
 21
12.717672
 31
0.0
  0
LINE
  8
OUTLINE
 62
     5
  5
31
 10
14.39411
 20
12.717672
 30
0.0
 11
14.520907
 21
13.797371
 31
0.0
  0
LINE
  8
OUTLINE
 62
     5
  5
32
 10
14.520907
 20
13.797371
 30
0.0
 11
14.73992
 21
13.797371
 31
0.0
  0
LINE
  8
OUTLINE
 62
     5
  5
33
 10
14.73992
 20
13.797371
 30
0.0
 11
14.859034
 21
12.717672
 31
0.0
  0
LINE
  8
OUTLINE
 62
     5
  5
34
 10
14.859034
 20
12.717672
 30
0.0
 11
14.709181
 21
12.717672
 31
0.0
  0
LINE
  8
OUTLINE
 62
     5
  5
35
 10
14.709181
 20
12.717672
 30
0.0
 11
14.674601
 21
13.013533
 31
0.0
  0
LINE
  8
OUTLINE
 62
     5
  5
36
 10
14.674601
 20
13.013533
 30
0.0
 11
14.55933
 21
13.013533
 31
0.0
  0
LINE
  8
OUTLINE
 62
     5
  5
37
 10
14.55933
 20
13.013533
 30
0.0
 11
14.520907
 21
12.717672
 31
0.0
  0
LINE
  8
OUTLINE
 62
     5
  5
38
 10
14.520907
 20
12.717672
 30
0.0
 11
14.39411
 21
12.717672
 31
0.0
  0
LINE
  8
OUTLINE
 62
     5
  5
39
 10
14.569708
 20
13.171021
 30
0.0
 11
14.610372
 21
13.601675
 31
0.0
  0
LINE
  8
OUTLINE
 62
     5
  5
3A
 10
14.63996
 20
13.601675
 30
0.0
 11
14.672945
 21
13.171021
 31
0.0
  0
LINE
  8
OUTLINE
 62
     5
  5
3B
 10
14.672945
 20
13.171021
 30
0.0
 11
14.569708
 21
13.171021
 31
0.0
  0
LINE
  8
OUTLINE
 62
     5
  5
3C
 10
14.610372
 20
13.601675
 30
0.0
 11
14.63996
 21
13.601675
 31
0.0
  0
LINE
  8
OUTLINE
 62
     5
  5
3D
 10
14.936122
 20
12.716444
 30
0.0
 11
14.936122
 21
13.798597
 31
0.0
  0
LINE
  8
OUTLINE
 62
     5
  5
3E
 10
14.936122
 20
13.798597
 30
0.0
 11
15.29684
 21
13.798597
 31
0.0
  0
LINE
  8
OUTLINE
 62
     5
  5
3F
 10
15.182734
 20
13.327456
 30
0.0
 11
15.083353
 21
13.327456
 31
0.0
  0
LINE
  8
OUTLINE
 62
     5
  5
40
 10
15.083353
 20
13.327456
 30
0.0
 11
15.083353
 21
13.658727
 31
0.0
  0
LINE
  8
OUTLINE
 62
     5
  5
41
 10
15.083353
 20
13.658727
 30
0.0
 11
15.175374
 21
13.658727
 31
0.0
  0
LINE
  8
OUTLINE
 62
     5
  5
42
 10
14.936122
 20
12.716444
 30
0.0
 11
15.087034
 21
12.716444
 31
0.0
  0
LINE
  8
OUTLINE
 62
     5
  5
43
 10
15.087034
 20
12.716444
 30
0.0
 11
15.087034
 21
13.172862
 31
0.0
  0
LINE
  8
OUTLINE
 62
     5
  5
44
 10
15.087034
 20
13.172862
 30
0.0
 11
15.134885
 21
13.172862
 31
0.0
  0
LINE
  8
OUTLINE
 62
     5
  5
45
 10
15.381497
 20
13.677132
 30
0.0
 11
15.381497
 21
13.382668
 31
0.0
  0
LINE
  8
OUTLINE
 62
     5
  5
46
 10
15.381497
 20
13.183905
 30
0.0
 11
15.381497
 21
12.716444
 31
0.0
  0
LINE
  8
OUTLINE
 62
     5
  5
47
 10
15.381497
 20
12.716444
 30
0.0
 11
15.226905
 21
12.716444
 31
0.0
  0
LINE
  8
OUTLINE
 62
     5
  5
48
 10
15.226905
 20
12.716444
 30
0.0
 11
15.226905
 21
13.11765
 31
0.0
  0
LINE
  8
OUTLINE
 62
     5
  5
49
 10
15.225272
 20
13.606319
 30
0.0
 11
15.225272
 21
13.383051
 31
0.0
  0
ARC
  8
OUTLINE
 62
     5
  5
4A
 10
15.178191
 20
13.375003
 30
0.0
 40
0.047764
 50
275.457677
 51
369.699849
  0
ARC
  8
OUTLINE
 62
     5
  5
4B
 10
15.173889
 20
13.607354
 30
0.0
 40
0.051393
 50
358.845544
 51
448.34475
  0
ARC
  8
OUTLINE
 62
     5
  5
4C
 10
15.297646
 20
13.373005
 30
0.0
 40
0.084406
 50
278.951073
 51
366.57337
  0
ARC
  8
OUTLINE
 62
     5
  5
4D
 10
15.314258
 20
13.194695
 30
0.0
 40
0.068101
 50
350.882445
 51
452.927903
  0
ARC
  8
OUTLINE
 62
     5
  5
4E
 10
15.321468
 20
13.276168
 30
0.0
 40
0.017188
 50
128.456775
 51
231.543242
  0
ARC
  8
OUTLINE
 62
     5
  5
4F
 10
15.144156
 20
13.084023
 30
0.0
 40
0.089321
 50
22.115162
 51
95.957778
  0
ARC
  8
OUTLINE
 62
     5
  5
50
 10
15.266536
 20
13.687242
 30
0.0
 40
0.115407
 50
354.974138
 51
434.776204
  0
LINE
  8
OUTLINE
 62
     5
  5
51
 10
15.492877
 20
12.717998
 30
0.0
 11
15.492877
 21
13.797916
 31
0.0
  0
LINE
  8
OUTLINE
 62
     5
  5
52
 10
15.492877
 20
13.797916
 30
0.0
 11
15.622721
 21
13.797916
 31
0.0
  0
LINE
  8
OUTLINE
 62
     5
  5
53
 10
15.622721
 20
13.797916
 30
0.0
 11
15.622721
 21
12.889012
 31
0.0
  0
LINE
  8
OUTLINE
 62
     5
  5
54
 10
15.622721
 20
12.889012
 30
0.0
 11
15.790566
 21
12.889012
 31
0.0
  0
LINE
  8
OUTLINE
 62
     5
  5
55
 10
15.790566
 20
12.889012
 30
0.0
 11
15.790566
 21
12.717998
 31
0.0
  0
LINE
  8
OUTLINE
 62
     5
  5
56
 10
15.790566
 20
12.717998
 30
0.0
 11
15.492877
 21
12.717998
 31
0.0
  0
LINE
  8
OUTLINE
 62
     5
  5
57
 10
15.866573
 20
12.717998
 30
0.0
 11
15.866573
 21
13.794749
 31
0.0
  0
LINE
  8
OUTLINE
 62
     5
  5
58
 10
15.866573
 20
13.794749
 30
0.0
 11
16.176931
 21
13.794749
 31
0.0
  0
LINE
  8
OUTLINE
 62
     5
  5
59
 10
16.176931
 20
13.794749
 30
0.0
 11
16.176931
 21
13.633237
 31
0.0
  0
LINE
  8
OUTLINE
 62
     5
  5
5A
 10
16.176931
 20
13.633237
 30
0.0
 11
16.015419
 21
13.633237
 31
0.0
  0
LINE
  8
OUTLINE
 62
     5
  5
5B
 10
16.015419
 20
13.633237
 30
0.0
 11
16.015419
 21
13.364049
 31
0.0
  0
LINE
  8
OUTLINE
 62
     5
  5
5C
 10
16.015419
 20
13.364049
 30
0.0
 11
16.180098
 21
13.364049
 31
0.0
  0
LINE
  8
OUTLINE
 62
     5
  5
5D
 10
16.180098
 20
13.364049
 30
0.0
 11
16.180098
 21
13.208869
 31
0.0
  0
LINE
  8
OUTLINE
 62
     5
  5
5E
 10
16.180098
 20
13.208869
 30
0.0
 11
16.015419
 21
13.208869
 31
0.0
  0
LINE
  8
OUTLINE
 62
     5
  5
5F
 10
16.015419
 20
13.208869
 30
0.0
 11
16.015419
 21
12.885845
 31
0.0
  0
LINE
  8
OUTLINE
 62
     5
  5
60
 10
16.015419
 20
12.885845
 30
0.0
 11
16.176931
 21
12.885845
 31
0.0
  0
LINE
  8
OUTLINE
 62
     5
  5
61
 10
16.176931
 20
12.885845
 30
0.0
 11
16.176931
 21
12.717998
 31
0.0
  0
LINE
  8
OUTLINE
 62
     5
  5
62
 10
16.176931
 20
12.717998
 30
0.0
 11
15.866573
 21
12.717998
 31
0.0
  0
LINE
  8
OUTLINE
 62
     5
  5
63
 10
16.245432
 20
13.795066
 30
0.0
 11
16.412315
 21
13.143949
 31
0.0
  0
LINE
  8
OUTLINE
 62
     5
  5
64
 10
16.412315
 20
12.720722
 30
0.0
 11
16.545252
 21
12.720722
 31
0.0
  0
LINE
  8
OUTLINE
 62
     5
  5
65
 10
16.545252
 20
12.720722
 30
0.0
 11
16.545252
 21
13.138522
 31
0.0
  0
LINE
  8
OUTLINE
 62
     5
  5
66
 10
16.545252
 20
13.138522
 30
0.0
 11
16.716877
 21
13.797779
 31
0.0
  0
LINE
  8
OUTLINE
 62
     5
  5
67
 10
16.575094
 20
13.797779
 30
0.0
 11
16.490992
 21
13.415248
 31
0.0
  0
LINE
  8
OUTLINE
 62
     5
  5
68
 10
16.490992
 20
13.415248
 30
0.0
 11
16.390612
 21
13.795066
 31
0.0
  0
LINE
  8
OUTLINE
 62
     5
  5
69
 10
16.390612
 20
13.795066
 30
0.0
 11
16.245432
 21
13.795066
 31
0.0
  0
LINE
  8
OUTLINE
 62
     5
  5
6A
 10
16.689039
 20
13.333858
 30
0.0
 11
16.965765
 21
13.331144
 31
0.0
  0
LINE
  8
OUTLINE
 62
     5
  5
6B
 10
16.965765
 20
13.331144
 30
0.0
 11
16.968479
 21
13.206347
 31
0.0
  0
LINE
  8
OUTLINE
 62
     5
  5
6C
 10
16.968479
 20
13.206347
 30
0.0
 11
16.691753
 21
13.206347
 31
0.0
  0
LINE
  8
OUTLINE
 62
     5
  5
6D
 10
16.691753
 20
13.206347
 30
0.0
 11
16.691753
 21
13.331144
 31
0.0
  0
LINE
  8
OUTLINE
 62
     5
  5
6E
 10
17.478519
 20
12.878076
 30
0.0
 11
17.481234
 21
13.613296
 31
0.0
  0
LINE
  8
OUTLINE
 62
     5
  5
6F
 10
17.296749
 20
13.632287
 30
0.0
 11
17.215361
 21
13.632287
 31
0.0
  0
LINE
  8
OUTLINE
 62
     5
  5
70
 10
17.215361
 20
12.891641
 30
0.0
 11
17.300295
 21
12.891641
 31
0.0
  0
LINE
  8
OUTLINE
 62
     5
  5
71
 10
17.321554
 20
12.924399
 30
0.0
 11
17.321554
 21
13.597572
 31
0.0
  0
LINE
  8
OUTLINE
 62
     5
  5
72
 10
17.524054
 20
12.720073
 30
0.0
 11
17.659054
 21
13.777573
 31
0.0
  0
LINE
  8
OUTLINE
 62
     5
  5
73
 10
17.659054
 20
13.777573
 30
0.0
 11
17.884054
 21
13.777573
 31
0.0
  0
LINE
  8
OUTLINE
 62
     5
  5
74
 10
17.884054
 20
13.777573
 30
0.0
 11
17.996553
 21
12.720073
 31
0.0
  0
LINE
  8
OUTLINE
 62
     5
  5
75
 10
17.659054
 20
12.720073
 30
0.0
 11
17.524054
 21
12.720073
 31
0.0
  0
LINE
  8
OUTLINE
 62
     5
  5
76
 10
17.996553
 20
12.720073
 30
0.0
 11
17.861555
 21
12.720073
 31
0.0
  0
LINE
  8
OUTLINE
 62
     5
  5
77
 10
17.659054
 20
12.720073
 30
0.0
 11
17.704054
 21
13.012572
 31
0.0
  0
LINE
  8
OUTLINE
 62
     5
  5
78
 10
17.704054
 20
13.012572
 30
0.0
 11
17.839054
 21
13.012572
 31
0.0
  0
LINE
  8
OUTLINE
 62
     5
  5
79
 10
17.839054
 20
13.012572
 30
0.0
 11
17.861555
 21
12.720073
 31
0.0
  0
LINE
  8
OUTLINE
 62
     5
  5
7A
 10
17.722054
 20
13.179073
 30
0.0
 11
17.821054
 21
13.179073
 31
0.0
  0
LINE
  8
OUTLINE
 62
     5
  5
7B
 10
17.821054
 20
13.179073
 30
0.0
 11
17.785055
 21
13.602073
 31
0.0
  0
LINE
  8
OUTLINE
 62
     5
  5
7C
 10
17.785055
 20
13.602073
 30
0.0
 11
17.758055
 21
13.602073
 31
0.0
  0
LINE
  8
OUTLINE
 62
     5
  5
7D
 10
17.758055
 20
13.602073
 30
0.0
 11
17.722054
 21
13.179073
 31
0.0
  0
LINE
  8
OUTLINE
 62
     5
  5
7E
 10
17.983055
 20
13.782073
 30
0.0
 11
18.127054
 21
12.720073
 31
0.0
  0
LINE
  8
OUTLINE
 62
     5
  5
7F
 10
18.127054
 20
12.720073
 30
0.0
 11
18.289055
 21
12.720073
 31
0.0
  0
LINE
  8
OUTLINE
 62
     5
  5
80
 10
18.289055
 20
12.720073
 30
0.0
 11
18.433054
 21
13.782073
 31
0.0
  0
LINE
  8
OUTLINE
 62
     5
  5
81
 10
18.433054
 20
13.782073
 30
0.0
 11
18.289055
 21
13.782073
 31
0.0
  0
LINE
  8
OUTLINE
 62
     5
  5
82
 10
18.289055
 20
13.782073
 30
0.0
 11
18.217054
 21
13.134073
 31
0.0
  0
LINE
  8
OUTLINE
 62
     5
  5
83
 10
18.217054
 20
13.134073
 30
0.0
 11
18.118055
 21
13.782073
 31
0.0
  0
LINE
  8
OUTLINE
 62
     5
  5
84
 10
18.118055
 20
13.782073
 30
0.0
 11
17.983055
 21
13.782073
 31
0.0
  0
LINE
  8
OUTLINE
 62
     5
  5
85
 10
18.505054
 20
12.720073
 30
0.0
 11
18.640055
 21
12.720073
 31
0.0
  0
LINE
  8
OUTLINE
 62
     5
  5
86
 10
18.640055
 20
12.720073
 30
0.0
 11
18.640055
 21
13.782073
 31
0.0
  0
LINE
  8
OUTLINE
 62
     5
  5
87
 10
18.640055
 20
13.782073
 30
0.0
 11
18.505054
 21
13.782073
 31
0.0
  0
LINE
  8
OUTLINE
 62
     5
  5
88
 10
19.027054
 20
13.791073
 30
0.0
 11
18.757053
 21
13.791073
 31
0.0
  0
LINE
  8
OUTLINE
 62
     5
  5
89
 10
18.757053
 20
13.791073
 30
0.0
 11
18.757053
 21
12.720073
 31
0.0
  0
LINE
  8
OUTLINE
 62
     5
  5
8A
 10
18.757053
 20
12.720073
 30
0.0
 11
19.018055
 21
12.720073
 31
0.0
  0
LINE
  8
OUTLINE
 62
     5
  5
8B
 10
18.991055
 20
13.629073
 30
0.0
 11
18.901054
 21
13.629073
 31
0.0
  0
LINE
  8
OUTLINE
 62
     5
  5
8C
 10
18.901054
 20
13.629073
 30
0.0
 11
18.901054
 21
12.891073
 31
0.0
  0
LINE
  8
OUTLINE
 62
     5
  5
8D
 10
18.901054
 20
12.891073
 30
0.0
 11
18.991055
 21
12.891073
 31
0.0
  0
LINE
  8
OUTLINE
 62
     5
  5
8E
 10
19.018055
 20
12.927073
 30
0.0
 11
19.018055
 21
13.593072
 31
0.0
  0
LINE
  8
OUTLINE
 62
     5
  5
8F
 10
19.405056
 20
13.107073
 30
0.0
 11
19.252054
 21
13.107073
 31
0.0
  0
LINE
  8
OUTLINE
 62
     5
  5
90
 10
19.252054
 20
13.107073
 30
0.0
 11
19.252054
 21
12.837072
 31
0.0
  0
LINE
  8
OUTLINE
 62
     5
  5
91
 10
19.405056
 20
13.098072
 30
0.0
 11
19.405056
 21
12.891073
 31
0.0
  0
LINE
  8
OUTLINE
 62
     5
  5
92
 10
19.549055
 20
12.891073
 30
0.0
 11
19.549055
 21
13.071074
 31
0.0
  0
LINE
  8
OUTLINE
 62
     5
  5
93
 10
19.396055
 20
12.711073
 30
0.0
 11
19.540054
 21
12.711073
 31
0.0
  0
LINE
  8
OUTLINE
 62
     5
  5
94
 10
19.252054
 20
13.683072
 30
0.0
 11
19.252054
 21
13.359073
 31
0.0
  0
LINE
  8
OUTLINE
 62
     5
  5
95
 10
19.414055
 20
13.809073
 30
0.0
 11
19.531055
 21
13.809073
 31
0.0
  0
LINE
  8
OUTLINE
 62
     5
  5
96
 10
19.405056
 20
13.620072
 30
0.0
 11
19.405056
 21
13.440073
 31
0.0
  0
LINE
  8
OUTLINE
 62
     5
  5
97
 10
19.540054
 20
13.611073
 30
0.0
 11
19.540054
 21
13.440073
 31
0.0
  0
LINE
  8
OUTLINE
 62
     5
  5
98
 10
19.540054
 20
13.440073
 30
0.0
 11
19.684053
 21
13.440073
 31
0.0
  0
LINE
  8
OUTLINE
 62
     5
  5
99
 10
19.684053
 20
13.440073
 30
0.0
 11
19.684053
 21
13.683072
 31
0.0
  0
LINE
  8
OUTLINE
 62
     5
  5
9A
 10
19.684053
 20
13.161074
 30
0.0
 11
19.684053
 21
12.828073
 31
0.0
  0
LINE
  8
OUTLINE
 62
     5
  5
9B
 10
19.180056
 20
13.584073
 30
0.0
 11
19.180056
 21
12.900072
 31
0.0
  0
ARC
  8
OUTLINE
 62
     5
  5
9C
 10
18.984343
 20
13.59946
 30
0.0
 40
0.196316
 50
355.504789
 51
437.434186
  0
ARC
  8
OUTLINE
 62
     5
  5
9D
 10
18.988478
 20
12.909591
 30
0.0
 40
0.191813
 50
278.870121
 51
357.155653
  0
ARC
  8
OUTLINE
 62
     5
  5
9E
 10
18.993322
 20
12.917497
 30
0.0
 40
0.02652
 50
265.092728
 51
381.166179
  0
ARC
  8
OUTLINE
 62
     5
  5
9F
 10
18.988779
 20
13.599241
 30
0.0
 40
0.029918
 50
348.101056
 51
445.638015
  0
ARC
  8
OUTLINE
 62
     5
  5
A0
 10
19.471241
 20
13.595867
 30
0.0
 40
0.070474
 50
12.460871
 51
159.911391
  0
ARC
  8
OUTLINE
 62
     5
  5
A1
 10
19.477055
 20
12.917502
 30
0.0
 40
0.076697
 50
200.156563
 51
339.843084
  0
ARC
  8
OUTLINE
 62
     5
  5
A2
 10
19.397438
 20
12.857943
 30
0.0
 40
0.146876
 50
188.168966
 51
269.459985
  0
ARC
  8
OUTLINE
 62
     5
  5
A3
 10
19.543522
 20
12.85392
 30
0.0
 40
0.142889
 50
268.609429
 51
349.578022
  0
ARC
  8
OUTLINE
 62
     5
  5
A4
 10
19.399298
 20
13.660902
 30
0.0
 40
0.148904
 50
84.312791
 51
171.437345
  0
ARC
  8
OUTLINE
 62
     5
  5
A5
 10
19.549728
 20
13.675856
 30
0.0
 40
0.13452
 50
3.075262
 51
97.979559
  0
ARC
  8
OUTLINE
 62
     5
  5
A6
 10
-25.268114
 20
-31.512096
 30
0.0
 40
63.374992
 50
44.821651
 51
45.178368
  0
ARC
  8
OUTLINE
 62
     5
  5
A7
 10
17.147728
 20
10.891843
 30
0.0
 40
3.242748
 50
42.224103
 51
49.538806
  0
ARC
  8
OUTLINE
 62
     5
  5
A8
 10
17.324131
 20
12.875054
 30
0.0
 40
0.154419
 50
271.920841
 51
361.121069
  0
ARC
  8
OUTLINE
 62
     5
  5
A9
 10
17.319271
 20
13.627
 30
0.0
 40
0.16254
 50
355.163553
 51
439.713638
  0
ARC
  8
OUTLINE
 62
     5
  5
AA
 10
17.293425
 20
13.60369
 30
0.0
 40
0.028788
 50
347.730012
 51
443.365542
  0
ARC
  8
OUTLINE
 62
     5
  5
AB
 10
17.291803
 20
12.920429
 30
0.0
 40
0.030015
 50
286.433327
 51
367.601048
  0
LINE
  8
OUTLINE
 62
     5
  5
AC
 10
18.505054
 20
13.782073
 30
0.0
 11
18.505054
 21
12.720073
 31
0.0
  0
LINE
  8
OUTLINE
 62
     5
  5
AD
 10
17.066145
 20
13.786927
 30
0.0
 11
17.066145
 21
12.720722
 31
0.0
  0
LINE
  8
OUTLINE
 62
     5
  5
AE
 10
17.348297
 20
13.786927
 30
0.0
 11
17.066145
 21
13.786927
 31
0.0
  0
LINE
  8
OUTLINE
 62
     5
  5
AF
 10
17.329306
 20
12.720722
 30
0.0
 11
17.066145
 21
12.720722
 31
0.0
  0
LINE
  8
OUTLINE
 62
     5
  5
B0
 10
17.215361
 20
13.632287
 30
0.0
 11
17.215361
 21
12.891641
 31
0.0
  0
LINE
  8
OUTLINE
 62
     5
  5
B1
 10
16.412315
 20
13.143949
 30
0.0
 11
16.412315
 21
12.720722
 31
0.0
  0
LINE
  8
OUTLINE
 62
     5
  5
B2
 10
19.774054
 20
13.638072
 30
0.0
 11
19.774054
 21
12.864073
 31
0.0
  0
LINE
  8
OUTLINE
 62
     5
  5
B3
 10
20.206055
 20
13.638072
 30
0.0
 11
20.206055
 21
12.864073
 31
0.0
  0
LINE
  8
OUTLINE
 62
     5
  5
B4
 10
19.927053
 20
13.809073
 30
0.0
 11
20.071054
 21
13.809073
 31
0.0
  0
LINE
  8
OUTLINE
 62
     5
  5
B5
 10
19.909054
 20
12.711073
 30
0.0
 11
20.080055
 21
12.711073
 31
0.0
  0
LINE
  8
OUTLINE
 62
     5
  5
B6
 10
19.963055
 20
12.882072
 30
0.0
 11
20.044054
 21
12.882072
 31
0.0
  0
LINE
  8
OUTLINE
 62
     5
  5
B7
 10
19.954054
 20
13.647073
 30
0.0
 11
20.044054
 21
13.647073
 31
0.0
  0
LINE
  8
OUTLINE
 62
     5
  5
B8
 10
19.918055
 20
13.611073
 30
0.0
 11
19.918055
 21
12.918073
 31
0.0
  0
LINE
  8
OUTLINE
 62
     5
  5
B9
 10
20.071054
 20
13.602073
 30
0.0
 11
20.071054
 21
12.918073
 31
0.0
  0
LINE
  8
OUTLINE
 62
     5
  5
BA
 10
20.449055
 20
12.711073
 30
0.0
 11
20.296055
 21
12.711073
 31
0.0
  0
LINE
  8
OUTLINE
 62
     5
  5
BB
 10
20.296055
 20
12.711073
 30
0.0
 11
20.296055
 21
13.809073
 31
0.0
  0
LINE
  8
OUTLINE
 62
     5
  5
BC
 10
20.296055
 20
13.809073
 30
0.0
 11
20.503056
 21
13.809073
 31
0.0
  0
LINE
  8
OUTLINE
 62
     5
  5
BD
 10
20.611053
 20
13.251073
 30
0.0
 11
20.611053
 21
13.809073
 31
0.0
  0
LINE
  8
OUTLINE
 62
     5
  5
BE
 10
20.611053
 20
13.809073
 30
0.0
 11
20.764053
 21
13.809073
 31
0.0
  0
LINE
  8
OUTLINE
 62
     5
  5
BF
 10
20.764053
 20
13.809073
 30
0.0
 11
20.764053
 21
12.720073
 31
0.0
  0
LINE
  8
OUTLINE
 62
     5
  5
C0
 10
20.764053
 20
12.720073
 30
0.0
 11
20.764053
 21
12.711073
 31
0.0
  0
LINE
  8
OUTLINE
 62
     5
  5
C1
 10
20.764053
 20
12.711073
 30
0.0
 11
20.584055
 21
12.711073
 31
0.0
  0
LINE
  8
OUTLINE
 62
     5
  5
C2
 10
20.449055
 20
12.711073
 30
0.0
 11
20.449055
 21
13.341073
 31
0.0
  0
LINE
  8
OUTLINE
 62
     5
  5
C3
 10
20.449055
 20
13.341073
 30
0.0
 11
20.584055
 21
12.711073
 31
0.0
  0
LINE
  8
OUTLINE
 62
     5
  5
C4
 10
20.611053
 20
13.251073
 30
0.0
 11
20.503056
 21
13.809073
 31
0.0
  0
ARC
  8
OUTLINE
 62
     5
  5
C5
 10
19.910131
 20
12.848083
 30
0.0
 40
0.137013
 50
173.297882
 51
269.549188
  0
ARC
  8
OUTLINE
 62
     5
  5
C6
 10
20.07275
 20
12.84547
 30
0.0
 40
0.134595
 50
273.110988
 51
367.944333
  0
ARC
  8
OUTLINE
 62
     5
  5
C7
 10
19.91662
 20
13.664461
 30
0.0
 40
0.144988
 50
85.873052
 51
190.486873
  0
ARC
  8
OUTLINE
 62
     5
  5
C8
 10
20.045721
 20
13.650284
 30
0.0
 40
0.160799
 50
355.644672
 51
440.934999
  0
ARC
  8
OUTLINE
 62
     5
  5
C9
 10
19.949566
 20
13.615562
 30
0.0
 40
0.031828
 50
81.891571
 51
188.108423
  0
ARC
  8
OUTLINE
 62
     5
  5
CA
 10
20.033075
 20
13.609884
 30
0.0
 40
0.038775
 50
348.378061
 51
433.551489
  0
ARC
  8
OUTLINE
 62
     5
  5
CB
 10
20.044704
 20
12.909709
 30
0.0
 40
0.027645
 50
268.65071
 51
377.60957
  0
ARC
  8
OUTLINE
 62
     5
  5
CC
 10
19.95932
 20
12.923532
 30
0.0
 40
0.041626
 50
187.535561
 51
275.146514
  0
LINE
  8
OUTLINE
 62
     5
  5
CD
 10
16.575094
 20
13.797779
 30
0.0
 11
16.716877
 21
13.797779
 31
0.0
  0
LINE
  8
OUTLINE
 62
     5
  5
CE
 10
13.474054
 20
14.079073
 30
0.0
 11
21.142054
 21
14.079073
 31
0.0
  0
LINE
  8
OUTLINE
 62
     5
  5
CF
 10
21.142054
 20
14.079073
 30
0.0
 11
21.142054
 21
12.378072
 31
0.0
  0
LINE
  8
OUTLINE
 62
     5
  5
D0
 10
21.142054
 20
12.378072
 30
0.0
 11
13.456055
 21
12.378072
 31
0.0
  0
LINE
  8
OUTLINE
 62
     5
  5
D1
 10
13.456055
 20
12.378072
 30
0.0
 11
13.456055
 21
14.079073
 31
0.0
  0
LINE
  8
OUTLINE
 62
     5
  5
D2
 10
13.627054
 20
13.944073
 30
0.0
 11
20.989054
 21
13.944073
 31
0.0
  0
LINE
  8
OUTLINE
 62
     5
  5
D3
 10
20.989054
 20
13.944073
 30
0.0
 11
20.989054
 21
12.558072
 31
0.0
  0
LINE
  8
OUTLINE
 62
     5
  5
D4
 10
20.989054
 20
12.558072
 30
0.0
 11
13.627054
 21
12.558072
 31
0.0
  0
LINE
  8
OUTLINE
 62
     5
  5
D5
 10
13.627054
 20
12.558072
 30
0.0
 11
13.627054
 21
13.944073
 31
0.0
  0
LINE
  8
OUTLINE
 62
     5
  5
D6
 10
16.480055
 20
14.304073
 30
0.0
 11
16.521458
 21
14.304073
 31
0.0
  0
LINE
  8
OUTLINE
 62
     5
  5
D7
 10
16.039055
 20
14.304073
 30
0.0
 11
16.210054
 21
14.304073
 31
0.0
  0
LINE
  8
OUTLINE
 62
     5
  5
D8
 10
15.562054
 20
14.304073
 30
0.0
 11
15.724054
 21
14.304073
 31
0.0
  0
LINE
  8
OUTLINE
 62
     5
  5
D9
 10
15.175055
 20
14.304073
 30
0.0
 11
15.346054
 21
14.304073
 31
0.0
  0
LINE
  8
OUTLINE
 62
     5
  5
DA
 10
14.231853
 20
14.304073
 30
0.0
 11
15.004054
 21
14.304073
 31
0.0
  0
LINE
  8
OUTLINE
 62
     5
  5
DB
 10
13.276054
 20
14.304073
 30
0.0
 11
14.224287
 21
14.304073
 31
0.0
  0
LINE
  8
OUTLINE
 62
     5
  5
DC
 10
21.340055
 20
14.304073
 30
0.0
 11
21.340055
 21
12.198072
 31
0.0
  0
LINE
  8
OUTLINE
 62
     5
  5
DD
 10
14.878055
 20
12.198072
 30
0.0
 11
13.276054
 21
12.198072
 31
0.0
  0
LINE
  8
OUTLINE
 62
     5
  5
DE
 10
15.301054
 20
12.198072
 30
0.0
 11
15.121056
 21
12.198072
 31
0.0
  0
LINE
  8
OUTLINE
 62
     5
  5
DF
 10
16.021055
 20
12.198072
 30
0.0
 11
15.562054
 21
12.198072
 31
0.0
  0
LINE
  8
OUTLINE
 62
     5
  5
E0
 10
16.318054
 20
12.198072
 30
0.0
 11
16.147055
 21
12.198072
 31
0.0
  0
LINE
  8
OUTLINE
 62
     5
  5
E1
 10
16.768055
 20
12.198072
 30
0.0
 11
16.606054
 21
12.198072
 31
0.0
  0
LINE
  8
OUTLINE
 62
     5
  5
E2
 10
17.000261
 20
12.198072
 30
0.0
 11
16.975056
 21
12.198072
 31
0.0
  0
LINE
  8
OUTLINE
 62
     5
  5
E3
 10
17.605055
 20
12.198072
 30
0.0
 11
17.416054
 21
12.198072
 31
0.0
  0
LINE
  8
OUTLINE
 62
     5
  5
E4
 10
21.340055
 20
12.198072
 30
0.0
 11
19.756054
 21
12.198072
 31
0.0
  0
LINE
  8
OUTLINE
 62
     5
  5
E5
 10
13.276054
 20
12.198072
 30
0.0
 11
13.276054
 21
14.304073
 31
0.0
  0
LINE
  8
OUTLINE
 62
     5
  5
E6
 10
14.653054
 20
14.646073
 30
0.0
 11
14.653054
 21
15.402073
 31
0.0
  0
LINE
  8
OUTLINE
 62
     5
  5
E7
 10
14.824054
 20
14.781074
 30
0.0
 11
14.824054
 21
15.231073
 31
0.0
  0
LINE
  8
OUTLINE
 62
     5
  5
E8
 10
19.603054
 20
14.853072
 30
0.0
 11
19.603054
 21
15.096073
 31
0.0
  0
LINE
  8
OUTLINE
 62
     5
  5
E9
 10
19.801054
 20
14.763072
 30
0.0
 11
19.801054
 21
15.240072
 31
0.0
  0
LINE
  8
OUTLINE
 62
     5
  5
EA
 10
19.990055
 20
14.637073
 30
0.0
 11
19.990055
 21
15.402073
 31
0.0
  0
LINE
  8
OUTLINE
 62
     5
  5
EB
 10
15.004054
 20
14.853072
 30
0.0
 11
15.004054
 21
15.087073
 31
0.0
  0
ARC
  8
OUTLINE
 62
     5
  5
EC
 10
14.730005
 20
19.854057
 30
0.0
 40
4.45265
 50
269.00976
 51
305.521844
  0
ARC
  8
OUTLINE
 62
     5
  5
ED
 10
14.83004
 20
19.744604
 30
0.0
 40
4.513535
 50
269.924022
 51
303.436502
  0
ARC
  8
OUTLINE
 62
     5
  5
EE
 10
14.767277
 20
19.975134
 30
0.0
 40
4.893794
 50
272.773249
 51
301.400885
  0
ARC
  8
OUTLINE
 62
     5
  5
EF
 10
14.699671
 20
14.321904
 30
0.0
 40
0.475719
 50
357.851943
 51
434.843058
  0
ARC
  8
OUTLINE
 62
     5
  5
F0
 10
14.762735
 20
14.321717
 30
0.0
 40
0.583586
 50
358.267464
 51
425.574477
  0
ARC
  8
OUTLINE
 62
     5
  5
F1
 10
14.617953
 20
14.25893
 30
0.0
 40
0.388731
 50
6.668733
 51
84.8193
  0
LINE
  8
OUTLINE
 62
     5
  5
F2
 10
15.562054
 20
14.304073
 30
0.0
 11
15.562054
 21
14.988072
 31
0.0
  0
LINE
  8
OUTLINE
 62
     5
  5
F3
 10
15.724054
 20
14.304073
 30
0.0
 11
15.724054
 21
14.628073
 31
0.0
  0
LINE
  8
OUTLINE
 62
     5
  5
F4
 10
16.039055
 20
14.304073
 30
0.0
 11
16.039055
 21
14.646073
 31
0.0
  0
LINE
  8
OUTLINE
 62
     5
  5
F5
 10
16.210054
 20
14.304073
 30
0.0
 11
16.210054
 21
15.132072
 31
0.0
  0
LINE
  8
OUTLINE
 62
     5
  5
F6
 10
15.562054
 20
14.988072
 30
0.0
 11
15.724054
 21
15.015073
 31
0.0
  0
LINE
  8
OUTLINE
 62
     5
  5
F7
 10
15.724054
 20
15.015073
 30
0.0
 11
15.886054
 21
14.700072
 31
0.0
  0
LINE
  8
OUTLINE
 62
     5
  5
F8
 10
15.886054
 20
14.700072
 30
0.0
 11
16.048056
 21
15.087073
 31
0.0
  0
LINE
  8
OUTLINE
 62
     5
  5
F9
 10
16.048056
 20
15.087073
 30
0.0
 11
16.210054
 21
15.132072
 31
0.0
  0
LINE
  8
OUTLINE
 62
     5
  5
FA
 10
15.724054
 20
14.628073
 30
0.0
 11
15.886054
 21
14.340073
 31
0.0
  0
LINE
  8
OUTLINE
 62
     5
  5
FB
 10
15.886054
 20
14.340073
 30
0.0
 11
16.039055
 21
14.646073
 31
0.0
  0
LINE
  8
OUTLINE
 62
     5
  5
FC
 10
16.336054
 20
15.078073
 30
0.0
 11
16.336054
 21
14.448072
 31
0.0
  0
LINE
  8
OUTLINE
 62
     5
  5
FD
 10
16.507053
 20
14.988072
 30
0.0
 11
16.507053
 21
14.538073
 31
0.0
  0
LINE
  8
OUTLINE
 62
     5
  5
FE
 10
16.777054
 20
15.069073
 30
0.0
 11
16.777054
 21
14.556073
 31
0.0
  0
LINE
  8
OUTLINE
 62
     5
  5
FF
 10
16.552053
 20
14.502073
 30
0.0
 11
16.741055
 21
14.502073
 31
0.0
  0
LINE
  8
OUTLINE
 62
     5
  5
100
 10
16.948055
 20
15.249073
 30
0.0
 11
16.948055
 21
14.439074
 31
0.0
  0
LINE
  8
OUTLINE
 62
     5
  5
101
 10
16.444054
 20
15.204073
 30
0.0
 11
16.759054
 21
15.321074
 31
0.0
  0
LINE
  8
OUTLINE
 62
     5
  5
102
 10
16.543055
 20
15.051073
 30
0.0
 11
16.705055
 21
15.114073
 31
0.0
  0
ARC
  8
OUTLINE
 62
     5
  5
103
 10
16.500755
 20
14.468775
 30
0.0
 40
0.165997
 50
187.164286
 51
262.836177
  0
ARC
  8
OUTLINE
 62
     5
  5
104
 10
16.806755
 20
14.445373
 30
0.0
 40
0.14144
 50
272.552634
 51
357.447391
  0
ARC
  8
OUTLINE
 62
     5
  5
105
 10
16.522686
 20
15.02739
 30
0.0
 40
0.193391
 50
113.991138
 51
164.806843
  0
LINE
  8
OUTLINE
 62
     5
  5
106
 10
16.521458
 20
14.304073
 30
0.0
 11
16.813055
 21
14.304073
 31
0.0
  0
ARC
  8
OUTLINE
 62
     5
  5
107
 10
16.738804
 20
14.542572
 30
0.0
 40
0.040563
 50
273.181011
 51
379.441003
  0
ARC
  8
OUTLINE
 62
     5
  5
108
 10
16.577557
 20
14.989572
 30
0.0
 40
0.070518
 50
119.291644
 51
181.218565
  0
ARC
  8
OUTLINE
 62
     5
  5
109
 10
16.72566
 20
15.066943
 30
0.0
 40
0.051437
 50
2.373282
 51
113.615986
  0
ARC
  8
OUTLINE
 62
     5
  5
10A
 10
16.815042
 20
15.183976
 30
0.0
 40
0.148088
 50
26.077208
 51
112.214124
  0
ARC
  8
OUTLINE
 62
     5
  5
10B
 10
16.5527
 20
14.549006
 30
0.0
 40
0.046938
 50
193.470695
 51
269.210424
  0
LINE
  8
OUTLINE
 62
     5
  5
10C
 10
17.416054
 20
14.304073
 30
0.0
 11
17.227055
 21
14.304073
 31
0.0
  0
LINE
  8
OUTLINE
 62
     5
  5
10D
 10
18.658054
 20
14.304073
 30
0.0
 11
18.496054
 21
14.304073
 31
0.0
  0
LINE
  8
OUTLINE
 62
     5
  5
10E
 10
19.117054
 20
14.304073
 30
0.0
 11
18.937054
 21
14.304073
 31
0.0
  0
LINE
  8
OUTLINE
 62
     5
  5
10F
 10
19.441055
 20
14.304073
 30
0.0
 11
19.288054
 21
14.304073
 31
0.0
  0
LINE
  8
OUTLINE
 62
     5
  5
110
 10
16.975056
 20
15.231073
 30
0.0
 11
16.975056
 21
15.420073
 31
0.0
  0
LINE
  8
OUTLINE
 62
     5
  5
111
 10
17.227055
 20
14.304073
 30
0.0
 11
17.227055
 21
15.348072
 31
0.0
  0
LINE
  8
OUTLINE
 62
     5
  5
112
 10
17.416054
 20
14.304073
 30
0.0
 11
17.416054
 21
15.348072
 31
0.0
  0
LINE
  8
OUTLINE
 62
     5
  5
113
 10
17.659054
 20
15.222073
 30
0.0
 11
17.659054
 21
15.393072
 31
0.0
  0
LINE
  8
OUTLINE
 62
     5
  5
114
 10
17.704054
 20
14.493073
 30
0.0
 11
17.704054
 21
15.222073
 31
0.0
  0
LINE
  8
OUTLINE
 62
     5
  5
115
 10
17.884054
 20
14.520073
 30
0.0
 11
17.884054
 21
15.096073
 31
0.0
  0
LINE
  8
OUTLINE
 62
     5
  5
116
 10
17.920055
 20
14.502073
 30
0.0
 11
18.118055
 21
14.502073
 31
0.0
  0
LINE
  8
OUTLINE
 62
     5
  5
117
 10
18.145056
 20
14.529073
 30
0.0
 11
18.145056
 21
15.006073
 31
0.0
  0
LINE
  8
OUTLINE
 62
     5
  5
118
 10
18.325054
 20
14.475073
 30
0.0
 11
18.325054
 21
15.033072
 31
0.0
  0
LINE
  8
OUTLINE
 62
     5
  5
119
 10
18.496054
 20
14.304073
 30
0.0
 11
18.496054
 21
15.105072
 31
0.0
  0
LINE
  8
OUTLINE
 62
     5
  5
11A
 10
18.658054
 20
14.700072
 30
0.0
 11
18.658054
 21
14.907073
 31
0.0
  0
LINE
  8
OUTLINE
 62
     5
  5
11B
 10
18.658054
 20
14.304073
 30
0.0
 11
18.658054
 21
14.538073
 31
0.0
  0
LINE
  8
OUTLINE
 62
     5
  5
11C
 10
18.658054
 20
14.700072
 30
0.0
 11
18.901054
 21
14.700072
 31
0.0
  0
LINE
  8
OUTLINE
 62
     5
  5
11D
 10
18.658054
 20
14.538073
 30
0.0
 11
18.883055
 21
14.538073
 31
0.0
  0
LINE
  8
OUTLINE
 62
     5
  5
11E
 10
18.937054
 20
14.304073
 30
0.0
 11
18.937054
 21
14.475073
 31
0.0
  0
LINE
  8
OUTLINE
 62
     5
  5
11F
 10
19.117054
 20
14.304073
 30
0.0
 11
19.117054
 21
14.511073
 31
0.0
  0
LINE
  8
OUTLINE
 62
     5
  5
120
 10
19.117054
 20
14.673073
 30
0.0
 11
19.117054
 21
14.880073
 31
0.0
  0
LINE
  8
OUTLINE
 62
     5
  5
121
 10
16.975056
 20
15.420073
 30
0.0
 11
17.281055
 21
15.582073
 31
0.0
  0
LINE
  8
OUTLINE
 62
     5
  5
122
 10
17.281055
 20
15.582073
 30
0.0
 11
17.326054
 21
15.582073
 31
0.0
  0
LINE
  8
OUTLINE
 62
     5
  5
123
 10
17.326054
 20
15.582073
 30
0.0
 11
17.659054
 21
15.393072
 31
0.0
  0
LINE
  8
OUTLINE
 62
     5
  5
124
 10
17.659054
 20
15.222073
 30
0.0
 11
17.416054
 21
15.348072
 31
0.0
  0
LINE
  8
OUTLINE
 62
     5
  5
125
 10
16.975056
 20
15.231073
 30
0.0
 11
17.227055
 21
15.348072
 31
0.0
  0
LINE
  8
OUTLINE
 62
     5
  5
126
 10
17.848055
 20
15.339073
 30
0.0
 11
18.217054
 21
15.195072
 31
0.0
  0
LINE
  8
OUTLINE
 62
     5
  5
127
 10
17.929054
 20
15.123073
 30
0.0
 11
18.127054
 21
15.051073
 31
0.0
  0
LINE
  8
OUTLINE
 62
     5
  5
128
 10
18.496054
 20
15.105072
 30
0.0
 11
18.568054
 21
15.105072
 31
0.0
  0
LINE
  8
OUTLINE
 62
     5
  5
129
 10
18.568054
 20
15.105072
 30
0.0
 11
19.009054
 21
15.015073
 31
0.0
  0
LINE
  8
OUTLINE
 62
     5
  5
12A
 10
18.658054
 20
14.907073
 30
0.0
 11
18.712053
 21
14.907073
 31
0.0
  0
LINE
  8
OUTLINE
 62
     5
  5
12B
 10
18.712053
 20
14.907073
 30
0.0
 11
18.901054
 21
14.862073
 31
0.0
  0
ARC
  8
OUTLINE
 62
     5
  5
12C
 10
18.994268
 20
14.729645
 30
0.0
 40
0.135192
 50
288.004461
 51
335.262468
  0
ARC
  8
OUTLINE
 62
     5
  5
12D
 10
19.026258
 20
14.510808
 30
0.0
 40
0.090795
 50
0.167268
 51
83.806438
  0
ARC
  8
OUTLINE
 62
     5
  5
12E
 10
18.889055
 20
14.488573
 30
0.0
 40
0.049862
 50
344.29022
 51
456.911269
  0
LINE
  8
OUTLINE
 62
     5
  5
12F
 10
18.937054
 20
14.727073
 30
0.0
 11
18.937054
 21
14.835073
 31
0.0
  0
ARC
  8
OUTLINE
 62
     5
  5
130
 10
18.851583
 20
14.803531
 30
0.0
 40
0.114677
 50
295.555481
 51
318.185331
  0
ARC
  8
OUTLINE
 62
     5
  5
131
 10
18.905554
 20
14.830574
 30
0.0
 40
0.031819
 50
8.128354
 51
98.130801
  0
ARC
  8
OUTLINE
 62
     5
  5
132
 10
17.825554
 20
15.219649
 30
0.0
 40
0.121525
 50
79.330304
 51
178.85713
  0
ARC
  8
OUTLINE
 62
     5
  5
133
 10
18.146553
 20
15.031072
 30
0.0
 40
0.178513
 50
0.642212
 51
66.738144
  0
ARC
  8
OUTLINE
 62
     5
  5
134
 10
18.117176
 20
14.500399
 30
0.0
 40
0.209416
 50
290.365712
 51
353.053796
  0
ARC
  8
OUTLINE
 62
     5
  5
135
 10
17.876459
 20
14.475073
 30
0.0
 40
0.173343
 50
174.039709
 51
260.568554
  0
ARC
  8
OUTLINE
 62
     5
  5
136
 10
19.991245
 20
14.274692
 30
0.0
 40
0.362383
 50
90.188038
 51
175.349418
  0
ARC
  8
OUTLINE
 62
     5
  5
137
 10
19.886276
 20
14.325556
 30
0.0
 40
0.445739
 50
101.022248
 51
182.762441
  0
ARC
  8
OUTLINE
 62
     5
  5
138
 10
19.885078
 20
14.326386
 30
0.0
 40
0.597441
 50
118.167614
 51
182.140402
  0
ARC
  8
OUTLINE
 62
     5
  5
139
 10
19.798229
 20
19.804718
 30
0.0
 40
4.712687
 50
238.231507
 51
267.626421
  0
ARC
  8
OUTLINE
 62
     5
  5
13A
 10
19.79562
 20
19.77116
 30
0.0
 40
4.531092
 50
236.837711
 51
270.06874
  0
ARC
  8
OUTLINE
 62
     5
  5
13B
 10
19.873386
 20
19.754013
 30
0.0
 40
4.353505
 50
234.042169
 51
271.535636
  0
LINE
  8
OUTLINE
 62
     5
  5
13C
 10
17.848055
 20
14.304073
 30
0.0
 11
18.190056
 21
14.304073
 31
0.0
  0
ARC
  8
OUTLINE
 62
     5
  5
13D
 10
18.968054
 20
14.871573
 30
0.0
 40
0.149242
 50
3.264758
 51
74.054676
  0
ARC
  8
OUTLINE
 62
     5
  5
13E
 10
17.918125
 20
15.090286
 30
0.0
 40
0.034559
 50
71.565035
 51
170.360245
  0
ARC
  8
OUTLINE
 62
     5
  5
13F
 10
17.978519
 20
14.965556
 30
0.0
 40
0.171393
 50
13.674268
 51
29.930977
  0
ARC
  8
OUTLINE
 62
     5
  5
140
 10
17.911055
 20
14.529073
 30
0.0
 40
0.028461
 50
198.435819
 51
288.435822
  0
ARC
  8
OUTLINE
 62
     5
  5
141
 10
18.122555
 20
14.524573
 30
0.0
 40
0.022946
 50
258.689399
 51
371.310612
  0
LINE
  8
OUTLINE
 62
     5
  5
142
 10
19.630054
 20
14.304073
 30
0.0
 11
21.340055
 21
14.304073
 31
0.0
  0
ARC
  8
OUTLINE
 62
     5
  5
143
 10
14.426435
 20
12.363892
 30
0.0
 40
0.481098
 50
268.04878
 51
339.838439
  0
ARC
  8
OUTLINE
 62
     5
  5
144
 10
20.20487
 20
12.346929
 30
0.0
 40
0.472857
 50
198.348857
 51
270.143435
  0
ARC
  8
OUTLINE
 62
     5
  5
145
 10
17.309179
 20
11.633319
 30
0.0
 40
1.469371
 50
240.608713
 51
300.098629
  0
ARC
  8
OUTLINE
 62
     5
  5
146
 10
13.84029
 20
18.669163
 30
0.0
 40
9.311079
 50
296.852452
 51
313.131587
  0
ARC
  8
OUTLINE
 62
     5
  5
147
 10
20.674299
 20
18.485188
 30
0.0
 40
9.101027
 50
226.50425
 51
243.321283
  0
ARC
  8
OUTLINE
 62
     5
  5
148
 10
14.700107
 20
12.210675
 30
0.0
 40
0.421137
 50
288.402361
 51
358.285113
  0
ARC
  8
OUTLINE
 62
     5
  5
149
 10
19.93881
 20
12.213704
 30
0.0
 40
0.435036
 50
182.059252
 51
247.74581
  0
ARC
  8
OUTLINE
 62
     5
  5
14A
 10
17.317055
 20
11.350272
 30
0.0
 40
0.9972
 50
245.470414
 51
294.529519
  0
ARC
  8
OUTLINE
 62
     5
  5
14B
 10
17.303555
 20
11.610645
 30
0.0
 40
1.086583
 50
243.165499
 51
296.834513
  0
ARC
  8
OUTLINE
 62
     5
  5
14C
 10
14.78695
 20
12.184063
 30
0.0
 40
0.514295
 50
310.51406
 51
361.560879
  0
ARC
  8
OUTLINE
 62
     5
  5
14D
 10
19.887836
 20
12.214571
 30
0.0
 40
0.564023
 50
181.676243
 51
228.35771
  0
ARC
  8
OUTLINE
 62
     5
  5
14E
 10
19.445187
 20
16.539837
 30
0.0
 40
6.605526
 50
225.715363
 51
247.365609
  0
ARC
  8
OUTLINE
 62
     5
  5
14F
 10
14.810931
 20
17.013571
 30
0.0
 40
7.190172
 50
293.96178
 51
313.651086
  0
ARC
  8
OUTLINE
 62
     5
  5
150
 10
20.039652
 20
17.198702
 30
0.0
 40
7.30845
 50
227.700844
 51
243.801091
  0
ARC
  8
OUTLINE
 62
     5
  5
151
 10
14.837508
 20
16.911331
 30
0.0
 40
6.932338
 50
295.244762
 51
312.411796
  0
LINE
  8
OUTLINE
 62
     5
  5
152
 10
16.021055
 20
12.198072
 30
0.0
 11
16.021055
 21
12.009073
 31
0.0
  0
LINE
  8
OUTLINE
 62
     5
  5
153
 10
16.021055
 20
12.009073
 30
0.0
 11
15.724054
 21
12.009073
 31
0.0
  0
LINE
  8
OUTLINE
 62
     5
  5
154
 10
15.679054
 20
11.973072
 30
0.0
 11
15.679054
 21
11.739073
 31
0.0
  0
LINE
  8
OUTLINE
 62
     5
  5
155
 10
15.490055
 20
12.081074
 30
0.0
 11
15.490055
 21
11.712072
 31
0.0
  0
LINE
  8
OUTLINE
 62
     5
  5
156
 10
16.138054
 20
11.361073
 30
0.0
 11
16.138054
 21
11.199073
 31
0.0
  0
LINE
  8
OUTLINE
 62
     5
  5
157
 10
16.336054
 20
11.676073
 30
0.0
 11
16.336054
 21
11.064073
 31
0.0
  0
LINE
  8
OUTLINE
 62
     5
  5
158
 10
16.516054
 20
11.667073
 30
0.0
 11
16.516054
 21
10.974072
 31
0.0
  0
LINE
  8
OUTLINE
 62
     5
  5
159
 10
16.516054
 20
10.974072
 30
0.0
 11
16.471054
 21
10.974072
 31
0.0
  0
LINE
  8
OUTLINE
 62
     5
  5
15A
 10
16.822054
 20
12.036074
 30
0.0
 11
16.822054
 21
10.920073
 31
0.0
  0
LINE
  8
OUTLINE
 62
     5
  5
15B
 10
16.993055
 20
11.910072
 30
0.0
 11
16.993055
 21
11.037073
 31
0.0
  0
LINE
  8
OUTLINE
 62
     5
  5
15C
 10
17.245054
 20
12.198072
 30
0.0
 11
17.245054
 21
11.991074
 31
0.0
  0
LINE
  8
OUTLINE
 62
     5
  5
15D
 10
17.245054
 20
11.991074
 30
0.0
 11
17.029055
 21
11.991074
 31
0.0
  0
LINE
  8
OUTLINE
 62
     5
  5
15E
 10
17.263054
 20
10.848073
 30
0.0
 11
17.263054
 21
10.659072
 31
0.0
  0
LINE
  8
OUTLINE
 62
     5
  5
15F
 10
17.263054
 20
10.659072
 30
0.0
 11
17.218056
 21
10.659072
 31
0.0
  0
LINE
  8
OUTLINE
 62
     5
  5
160
 10
17.416054
 20
12.198072
 30
0.0
 11
17.416054
 21
10.695072
 31
0.0
  0
LINE
  8
OUTLINE
 62
     5
  5
161
 10
17.416054
 20
10.695072
 30
0.0
 11
17.479053
 21
10.695072
 31
0.0
  0
LINE
  8
OUTLINE
 62
     5
  5
162
 10
15.517054
 20
11.649074
 30
0.0
 11
16.111055
 21
11.199073
 31
0.0
  0
LINE
  8
OUTLINE
 62
     5
  5
163
 10
16.111055
 20
11.199073
 30
0.0
 11
16.138054
 21
11.199073
 31
0.0
  0
LINE
  8
OUTLINE
 62
     5
  5
164
 10
15.706055
 20
11.694073
 30
0.0
 11
16.138054
 21
11.361073
 31
0.0
  0
LINE
  8
OUTLINE
 62
     5
  5
165
 10
16.147055
 20
12.198072
 30
0.0
 11
16.147055
 21
12.144073
 31
0.0
  0
LINE
  8
OUTLINE
 62
     5
  5
166
 10
16.147055
 20
12.144073
 30
0.0
 11
16.336054
 21
11.676073
 31
0.0
  0
LINE
  8
OUTLINE
 62
     5
  5
167
 10
16.336054
 20
11.064073
 30
0.0
 11
16.471054
 21
10.974072
 31
0.0
  0
LINE
  8
OUTLINE
 62
     5
  5
168
 10
16.444054
 20
11.874073
 30
0.0
 11
16.606054
 21
12.198072
 31
0.0
  0
LINE
  8
OUTLINE
 62
     5
  5
169
 10
17.029055
 20
10.965073
 30
0.0
 11
17.263054
 21
10.848073
 31
0.0
  0
LINE
  8
OUTLINE
 62
     5
  5
16A
 10
16.876055
 20
10.830072
 30
0.0
 11
17.218056
 21
10.659072
 31
0.0
  0
LINE
  8
OUTLINE
 62
     5
  5
16B
 10
16.318054
 20
12.198072
 30
0.0
 11
16.444054
 21
11.874073
 31
0.0
  0
ARC
  8
OUTLINE
 62
     5
  5
16C
 10
15.606108
 20
12.09031
 30
0.0
 40
0.116419
 50
112.235014
 51
184.550619
  0
ARC
  8
OUTLINE
 62
     5
  5
16D
 10
15.791533
 20
11.878602
 30
0.0
 40
0.146888
 50
117.34795
 51
139.973508
  0
ARC
  8
OUTLINE
 62
     5
  5
16E
 10
15.550802
 20
11.700821
 30
0.0
 40
0.061781
 50
169.506854
 51
236.88889
  0
ARC
  8
OUTLINE
 62
     5
  5
16F
 10
15.711839
 20
11.728145
 30
0.0
 40
0.034559
 50
161.564327
 51
260.364742
  0
ARC
  8
OUTLINE
 62
     5
  5
170
 10
16.908377
 20
10.910666
 30
0.0
 40
0.086833
 50
173.781145
 51
248.14694
  0
ARC
  8
OUTLINE
 62
     5
  5
171
 10
17.083057
 20
11.037073
 30
0.0
 40
0.090003
 50
180.000442
 51
233.128795
  0
ARC
  8
OUTLINE
 62
     5
  5
172
 10
17.067753
 20
11.925374
 30
0.0
 40
0.076249
 50
120.49955
 51
191.57626
  0
ARC
  8
OUTLINE
 62
     5
  5
173
 10
16.987658
 20
12.032919
 30
0.0
 40
0.165633
 50
94.363715
 51
178.908739
  0
LINE
  8
OUTLINE
 62
     5
  5
174
 10
16.516054
 20
11.667073
 30
0.0
 11
16.768055
 21
12.198072
 31
0.0
  0
LINE
  8
OUTLINE
 62
     5
  5
175
 10
17.767054
 20
11.019073
 30
0.0
 11
17.812054
 21
11.019073
 31
0.0
  0
LINE
  8
OUTLINE
 62
     5
  5
176
 10
17.812054
 20
11.019073
 30
0.0
 11
17.812054
 21
10.848073
 31
0.0
  0
LINE
  8
OUTLINE
 62
     5
  5
177
 10
17.605055
 20
12.198072
 30
0.0
 11
17.605055
 21
10.947073
 31
0.0
  0
LINE
  8
OUTLINE
 62
     5
  5
178
 10
17.920055
 20
12.153072
 30
0.0
 11
17.920055
 21
10.947073
 31
0.0
  0
LINE
  8
OUTLINE
 62
     5
  5
179
 10
17.920055
 20
10.947073
 30
0.0
 11
18.010056
 21
10.947073
 31
0.0
  0
LINE
  8
OUTLINE
 62
     5
  5
17A
 10
18.307055
 20
11.100073
 30
0.0
 11
18.307055
 21
11.253072
 31
0.0
  0
LINE
  8
OUTLINE
 62
     5
  5
17B
 10
18.073055
 20
11.712072
 30
0.0
 11
18.073055
 21
11.991074
 31
0.0
  0
LINE
  8
OUTLINE
 62
     5
  5
17C
 10
18.073055
 20
11.145073
 30
0.0
 11
18.073055
 21
11.559073
 31
0.0
  0
LINE
  8
OUTLINE
 62
     5
  5
17D
 10
18.073055
 20
11.991074
 30
0.0
 11
18.352055
 21
11.991074
 31
0.0
  0
LINE
  8
OUTLINE
 62
     5
  5
17E
 10
18.352055
 20
11.991074
 30
0.0
 11
18.352055
 21
12.198072
 31
0.0
  0
LINE
  8
OUTLINE
 62
     5
  5
17F
 10
18.073055
 20
11.712072
 30
0.0
 11
18.271055
 21
11.712072
 31
0.0
  0
LINE
  8
OUTLINE
 62
     5
  5
180
 10
18.271055
 20
11.712072
 30
0.0
 11
18.271055
 21
11.559073
 31
0.0
  0
LINE
  8
OUTLINE
 62
     5
  5
181
 10
18.271055
 20
11.559073
 30
0.0
 11
18.073055
 21
11.559073
 31
0.0
  0
LINE
  8
OUTLINE
 62
     5
  5
182
 10
18.433054
 20
11.181072
 30
0.0
 11
18.433054
 21
11.325072
 31
0.0
  0
LINE
  8
OUTLINE
 62
     5
  5
183
 10
18.442055
 20
11.739073
 30
0.0
 11
18.442055
 21
12.090073
 31
0.0
  0
LINE
  8
OUTLINE
 62
     5
  5
184
 10
19.072054
 20
12.198072
 30
0.0
 11
19.072054
 21
12.018072
 31
0.0
  0
LINE
  8
OUTLINE
 62
     5
  5
185
 10
19.072054
 20
12.018072
 30
0.0
 11
18.622053
 21
12.018072
 31
0.0
  0
LINE
  8
OUTLINE
 62
     5
  5
186
 10
18.604053
 20
11.982073
 30
0.0
 11
18.604053
 21
11.910072
 31
0.0
  0
LINE
  8
OUTLINE
 62
     5
  5
187
 10
18.622053
 20
11.865072
 30
0.0
 11
19.054054
 21
11.865072
 31
0.0
  0
LINE
  8
OUTLINE
 62
     5
  5
188
 10
19.072054
 20
11.829073
 30
0.0
 11
19.072054
 21
11.604073
 31
0.0
  0
LINE
  8
OUTLINE
 62
     5
  5
189
 10
18.505054
 20
11.694073
 30
0.0
 11
18.865055
 21
11.694073
 31
0.0
  0
LINE
  8
OUTLINE
 62
     5
  5
18A
 10
18.901054
 20
11.667073
 30
0.0
 11
18.901054
 21
11.640073
 31
0.0
  0
LINE
  8
OUTLINE
 62
     5
  5
18B
 10
18.433054
 20
11.181072
 30
0.0
 11
19.036055
 21
11.550073
 31
0.0
  0
LINE
  8
OUTLINE
 62
     5
  5
18C
 10
18.433054
 20
11.325072
 30
0.0
 11
18.883055
 21
11.613072
 31
0.0
  0
LINE
  8
OUTLINE
 62
     5
  5
18D
 10
18.010056
 20
10.947073
 30
0.0
 11
18.307055
 21
11.100073
 31
0.0
  0
LINE
  8
OUTLINE
 62
     5
  5
18E
 10
18.073055
 20
11.145073
 30
0.0
 11
18.307055
 21
11.253072
 31
0.0
  0
LINE
  8
OUTLINE
 62
     5
  5
18F
 10
17.479053
 20
10.695072
 30
0.0
 11
17.812054
 21
10.848073
 31
0.0
  0
LINE
  8
OUTLINE
 62
     5
  5
190
 10
17.605055
 20
10.947073
 30
0.0
 11
17.767054
 21
11.019073
 31
0.0
  0
ARC
  8
OUTLINE
 62
     5
  5
191
 10
18.581553
 20
12.054073
 30
0.0
 40
0.14407
 50
88.209414
 51
165.529798
  0
ARC
  8
OUTLINE
 62
     5
  5
192
 10
17.965054
 20
12.153073
 30
0.0
 40
0.044998
 50
89.998254
 51
180.001754
  0
LINE
  8
OUTLINE
 62
     5
  5
193
 10
17.965055
 20
12.198071
 30
0.0
 11
18.352055
 21
12.198072
 31
0.0
  0
LINE
  8
OUTLINE
 62
     5
  5
194
 10
18.586054
 20
12.198072
 30
0.0
 11
19.072054
 21
12.198072
 31
0.0
  0
ARC
  8
OUTLINE
 62
     5
  5
195
 10
18.487053
 20
11.735474
 30
0.0
 40
0.045144
 50
175.426838
 51
293.49954
  0
ARC
  8
OUTLINE
 62
     5
  5
196
 10
18.629671
 20
11.991764
 30
0.0
 40
0.027389
 50
106.145873
 51
200.723175
  0
ARC
  8
OUTLINE
 62
     5
  5
197
 10
18.667301
 20
11.909272
 30
0.0
 40
0.063253
 50
179.274748
 51
224.328845
  0
ARC
  8
OUTLINE
 62
     5
  5
198
 10
19.037495
 20
11.834293
 30
0.0
 40
0.034952
 50
351.411129
 51
421.718153
  0
ARC
  8
OUTLINE
 62
     5
  5
199
 10
18.854616
 20
11.642655
 30
0.0
 40
0.052466
 50
27.735496
 51
78.524192
  0
ARC
  8
OUTLINE
 62
     5
  5
19A
 10
18.86771
 20
11.642802
 30
0.0
 40
0.033457
 50
297.300239
 51
355.319357
  0
ARC
  8
OUTLINE
 62
     5
  5
19B
 10
18.9807
 20
11.625975
 30
0.0
 40
0.093943
 50
306.102987
 51
346.518333
  0
LINE
  8
OUTLINE
 62
     5
  5
19C
 10
17.000261
 20
12.198072
 30
0.0
 11
17.245054
 21
12.198072
 31
0.0
  0
LINE
  8
OUTLINE
 62
     5
  5
19D
 10
19.324055
 20
12.198072
 30
0.0
 11
19.504055
 21
12.198072
 31
0.0
  0
ENDSEC
  0
EOF
